PrimaNota.ru - самый крупный в мире бесплатный архив песенных текстов, аккордов, табулатур и нот


Untitled - Kingdom Come - таба, видео

Регистрация Запомнить меня
Войти через:  Facebook Google Twitter Vk Yandex Mail.ru

Untitled - Kingdom Come - таба, видео

Печатать
Просмотров: 131
Уроки эстрадного вокала в Санкт-Петербурге
This is how I play it and it sounds great. Figured it out by ear though, and this 
is my first tab, so there may be some mistakes.

Intro (0:01-0:25)
E|--------------------------------------------------------------------------------------|
B|------------------------------------------10-10-10------------------------------------|
G|--11-11-11-9-9-9-11-11-11-9-9-9-11-11-9-9----------9-9-9-11-11-11-9-9-9-11-11-9-9-----|
D|--------------------------------------------------------------------------------------|
A|--------------------------------------------------------------------------------------|
E|--------------------------------------------------------------------------------------|

Intro (Continued)
E|--------------------------------------------------------------------------------------|
B|-12-12-12-----------------------------------------------------------------------------|
G|----------9-9-9-11-11-11-9-9-9-11-11-9-9----------------------------------------------|
D|-----------------------------------------12-12-12-11-11-11-9-9-9-12-12-11-11-9-9------|
A|--------------------------------------------------------------------------------------|
E|--------------------------------------------------------------------------------------|
Play entire intro x2


Verse (0:26-0:50)
E|--------------------------------------------|
B|--------------------------------------------|
G|--------------------------------------------|
D|--9~--------5~--------7~--------4~----5~----|
A|--9~--------5~--------7~--------4~----5~----|
E|--7~--------3~--------5~--------2~----3~----|x2

Pre-Chorus (0:51-0:57)
E|-5-5-5-5-7-7-7-7-9-9-9-9-10-10-10-10---|
B|---------------------------------------|
G|---------------------------------------|
D|---------------------------------------|
A|---------------------------------------|
E|---------------------------------------|x2

Chorus (0:58-1:22)
E|------------------------------------------------------------------|
B|------------------------------------------------------------------|
G|--7-7-7-7-7-7-7-7-7-7-7-7-7-7-7-7---------------------------------|
D|--7-7-7-7-7-7-7-7-7-7-7-7-7-7-7-7-5-5-5-5-5-5-5-5-5-5-5-5-5-5-5-5-|
A|--5-5-5-5-5-5-5-5-5-5-5-5-5-5-5-5-5-5-5-5-5-5-5-5-5-5-5-5-5-5-5-5-|
E|----------------------------------3-3-3-3-3-3-3-3-3-3-3-3-3-3-3-3-|

Chorus (continued)
E|-----------------------------------------------------------------|
B|-----------------------------------------------------------------|
G|-----------------------------------------------------------------|
D|-9-9-9-9-9-9-9-9-9-9-9-9-9-9-9-9-5-5-5-5-5-5-5-5-5-5-5-5-5-5-5-5-|
A|-9-9-9-9-9-9-9-9-9-9-9-9-9-9-9-9-5-5-5-5-5-5-5-5-5-5-5-5-5-5-5-5-|
E|-7-7-7-7-7-7-7-7-7-7-7-7-7-7-7-7-3-3-3-3-3-3-3-3-3-3-3-3-3-3-3-3-|
Play Chorus x2

Intro riff x1 (1:23-1:35)

Verse x2 (1:36-2:01)

Pre-Chorus x2 (2:02-2:07)

Chorus x2 (2:08-2:33)

Intro riff x2 (2:34-2:58)

Bridge (2:59-3:11)
E|-----------------------------------------------------------------|
B|-----------------------------------------------------------------|
G|-7-7-7-7-7-7-7-7-7-7-7-7-7-7-7-7---------------------------------|
D|-7-7-7-7-7-7-7-7-7-7-7-7-7-7-7-7-5-5-5-5-5-5-5-5-5-5-5-5-5-5-5-5-|
A|-5-5-5-5-5-5-5-5-5-5-5-5-5-5-5-5-5-5-5-5-5-5-5-5-5-5-5-5-5-5-5-5-|
E|---------------------------------3-3-3-3-3-3-3-3-3-3-3-3-3-3-3-3-|

Bridge (Continued)
E|-----------------------------------------------------------------|
B|-----------------------------------------------------------------|
G|-----------------------------------------------------------------|
D|-7-7-7-7-7-7-7-7-7-7-7-7-7-7-7-7-5-5-5-5-5-5-5-5-5-5-5-5-5-5-5-5-|
A|-7-7-7-7-7-7-7-7-7-7-7-7-7-7-7-7-5-5-5-5-5-5-5-5-5-5-5-5-5-5-5-5-|
E|-5-5-5-5-5-5-5-5-5-5-5-5-5-5-5-5-3-3-3-3-3-3-3-3-3-3-3-3-3-3-3-3-|

Pre-Chorus x4 (3:12-3:24)

Chorus x4 (3:25-4:15)

Intro riff x2 (strum each note only once each these 2 times)


Hope this helps.
Добавлено: 31.07.2013
Другие материалы по этой песне:
  • Аккорды и текст

Страница создана 31.07.2013
http://primanota.ru/untitled/kingdom-come-chords.htm
Привет, Гость.
Предлагаем пройти революционный курс по гитаре.
Подарок от PrimaNota.Ru, забирай!