PrimaNota.ru - самый крупный в мире бесплатный архив песенных текстов, аккордов, табулатур и нот


Until We Are Ghosts - Weighted Down - таба, видео

Регистрация Запомнить меня
Войти через:  Facebook Google Twitter Vk Yandex Mail.ru

Until We Are Ghosts - Weighted Down - таба, видео

Печатать
Просмотров: 119
-------------------------------------------------------------------------------
                             Until We Are Ghosts - Weighted Down
-------------------------------------------------------------------------------

Tuning: Drop C

Intro 0:00-0:08

e|----0----------------------------------------------------------------------|
B|----0----------------------------------------------------------------------|
G|----0----------------------------------------------------------------------|
D|-2-----1---x-x-x-----------------------------------------------------------|
A|-2-----1---x-x-x-----------------------------------------------------------|
E|-2-----1---x-x-x-----------------------------------------------------------|

Riff One 0:08-0:27

e|---------------------------------------------------------------------------|
B|-----------------------------0---8-----------------------------------------|
G|---------------4-4--4--4---5---0---9---------------------------------------|
D|-3-2-2-2--2--2-2-2--2--2-------------10------------------------------------|
A|-3-2-2-2--2--2-3-3--3--3---------------------------------------------------|
E|-3-2-2-2--2--2-------------------------------------------------------------|

e|--------------------------------------------7h8p7--------------------------|
B|-------------------------------10-------8h10-----8-7p0---------------------|
G|---------------4-4--4--4---7--------7--------------------------------------|
D|-3-2-2-2--2--2-2-2--2--2---------------------------------------------------|
A|-3-2-2-2--2--2-3-3--3--3---------------------------------------------------|
E|-3-2-2-2--2--2-------------------------------------------------------------|

e|---------------------------------------------------------------------------|
B|-----------------------------0---8-----------------------------------------|
G|---------------4-4--4--4---5---0---9---------------------------------------|
D|-3-2-2-2--2--2-2-2--2--2-------------10------------------------------------|
A|-3-2-2-2--2--2-3-3--3--3---------------------------------------------------|
E|-3-2-2-2--2--2-------------------------------------------------------------|

e|---------------------------------------10p0-----7h8p7------10p0---10p0-----|
B|--------------------------8p0-------7h8-----8h10-----8--7h8----7h8-----8b--|
G|---------------4-4-4--4------9p0-------------------------------------------|
D|-3-2-2-2--2--2-2-3-2--2---------10p0---------------------------------------|
A|-3-2-2-2--2--2-3-3-3--3----------------------------------------------------|
E|-3-2-2-2--2--2-------------------------------------------------------------|

"Breakdown" 0:27-0:35

e|-----------------------------------0---------------------------8p7---------|
B|-----------------------------------7------------------------------8p0---8p0|
G|---------------------------------------------------------------------7h9---|
D|-3-2--2--2----3-2--2--2---2222--444----3-2--2--2--1---3-2--2--2------------|
A|-3-2--2--2----3-2--2--2---2222--555----3-2--2--2--1---3-2--2--2------------|
E|-3-2--2--2----3-2--2--2---2222---------3-2--2--2--1---3-2--2--2------------|

Riff Two 0:35-0:44

e|---------------------------------------------------------------------------|
B|-------------------------------------------------15-15/17/15p7-------------|
G|-------------4-4---------------4-4-0000-0000------------------14p6---------|
D|3-2--2--2--2-2-2--3-2--2--2--2-2-2-4444-9999---14-----------------14p7-12p7|
A|3-2--2--2--2-3-3--3-2--2--2--2-3-3-----------15----------------------------|
E|3-2--2--2--2------3-2--2--2--2---------------------------------------------|

Riff Three 0:44-0:54

e|-----------5p0--------------------------5p0-------7p0----------------------|
B|3-3-3-3-3-----7p0----3-3-3-3-3-3-3-3-3-----7p0-------8p0---7p0-------------|
G|-----------------5p0--------------------------5p0-------5p0----------------|
D|2-2-2-2-2------------2-2-2-2-2-2-2-2-2-------------------------------------|
A|3-3-3-3-3------------3-3-3-3-3-3-3-3-3-------------------------------------|
E|---------------------------------------------------------------------------|

e|---------------------------------------------------------------------------|
B|---------------------------------------------------------------------------|
G|9--------/12-------17-------19---------------------------------------------|
D|--(x6)-------(x6)-----(x16)-----(x8)---------------------------------------|
A|7--------/10------/15-------15---------------------------------------------|
E|---------------------------------------------------------------------------|

Riff Four 0:54-1:14

e|---------------------------------------------------------------------------|
B|---------------------------------------------------------------------------|
G|-----------9p0---7p0-------------------------------------------------------|
D|3-2-1-3-1------------------------------------------------------------------|
A|3-2-1-3-1-----7p0---5p0----------------------------------------------------|
E|3-2-1-3-1------------------------------------------------------------------|

e|---------------------------------------------------------------------------|
B|---------------------------------------------------------------------------|
G|---------------------------------------------------------------0000-0000---|
D|1-1-1-3--1-1-1-3--3-2-1-3--1-1-1-3--1-1-1-3--1-1-1-3--1-1-1-3--4444-5555---|
A|1-1-1-1--1-1-1-1--3-2-1-3--1-1-1-1--1-1-1-1--1-1-1-1--1-1-1-1--------------|
E|1-1-1-1--1-1-1-1--3-2-1-3--1-1-1-1--1-1-1-1--1-1-1-1--1-1-1-1--------------|

e|-------------------7-------------------------------------------------------|
B|----------8------5---8~----------------------------------------------------|
G|------------9--------------------------------------------------------------|
D|3-2-1-3-------10-----------------------------------------------------------|
A|3-2-1-3--------------------------------------------------------------------|
E|3-2-1-3--------------------------------------------------------------------|

Chorus  1:14-1:49
 
e|--------------------------------10----------10----10----10/12--------------|
B|15-7-5-------------------7h8p7h8--8------7h8---7h8---7h8-----12/10--8------|
G|-------(x1)-4-7------4-7------------(x2)-----------------------------------|
D|14-5-4----------7-9-5-------------------------------------------------9-7-5|
A|15-7-5---------------------------------------------------------------------|
E|---------------------------------------------------------------------------|

Tapping 1:51-:153
 
e|----------19p12------------------------------------------------------------|
B|17p10----------19p10-------------------------------------------------------|
G|-----19p12-----------------------------------------------------------------|
D|---------------------------------------------------------------------------|
A|---------------------------------------------------------------------------|
E|---------------------------------------------------------------------------|

Riff Four 1:54-2:11

e|---------------------------------------------------------------------------|
B|----------------------7-7-7-7---8-8-8-8--8---------------------------------|
G|---------------------------------------------------------------------------|
D|2-2--2-2--2-4-2-2--2--5-5-5-5---5-5-5-5--5---------------------------------|
A|2-2--2-2--2-3-2-2--2-------------------------------------------------------|
E|2-2--2-2--2---2-2--2-------------------------------------------------------|

e|---------------------------------------------------------------------------|
B|10-------------------777-----8888888----10---------------------------------|
G|---------------------------------------------------------------------------|
D|9----12---10---4-222-555-222-5555555----9----12---10-----------------------|
A|10---10---7----3-222-----222------------10---10---7------------------------|
E|-----10---7------222-----222-----------------10---7------------------------|

Breakdown Two/Outro 2:15-End

e|---------------------------------------------------------------------------|
B|---------------------------------------------------------------------------|
G|--7~--------44-----44-----4444---4444----------44--------------------------|
D|-4---2222---2222---2222---2222---2222---2222---2222----22222--2------------|
A|5----2222---3322---3322---3333---3333---2222---3322----22222--2------------|
E|-----2222-----22-----22-----------------2222-----22----22222--2------------|

e|---------------------------------------------------------------------------|
B|---------------------------------------------------------------------------|
G|4-------7-------44-----44--------4--7--------------------------------------|
D|2-(x9)--4-(x3)--2222---2222--2---2--4--------------------------------------|
A|3-------5-------3322---3322--2---3--5--------------------------------------|
E|------------------22-----22--2---------------------------------------------|


************************************

| /   slide up
| \   slide down
| h   hammer-on
| p   pull-off
| ~   vibrato
| +   harmonic
| x   Mute note
| b   Bend
| pb  Pre-bend
| br  Bend release
| pbr Pre-bend release
| brb Bend release bend

************************************
Добавлено: 16.11.2015
Другие материалы по этой песне:
  • Аккорды и текст

Страница создана 16.11.2015
http://primanota.ru/until-we-are-ghosts/weighted-down-chords.htm
Привет, Гость.
Предлагаем пройти революционный курс по гитаре.
Подарок от PrimaNota.Ru, забирай!