PrimaNota.ru - самый крупный в мире бесплатный архив песенных текстов, аккордов, табулатур и нот


Until We Are Ghosts - Wearing Thin - таба, видео

Регистрация Запомнить меня
Войти через:  Facebook Google Twitter Vk Yandex Mail.ru

Until We Are Ghosts - Wearing Thin - таба, видео

Печатать
Просмотров: 112
-------------------------------------------------------------------------------
                             Until We Are Ghosts - Wearing Thin
-------------------------------------------------------------------------------

Tuning: Drop C

Intro 0:00-0:18

e|-------------------------------------15-15-15------------------------------|
B|7-------12------12/10-10---------------------13-13-13----------13-13-13----|
G|0-------0----------------12-12/11-11------------------12-12-12-------------|
D|0-(x16)-10-(x8)------------------------------------------------------------|
A|7--------------------------------------------------------------------------|
E|---------------------------------------------------------------------------|

e|---------------------------------------------------------------------------|
B|12h13p12/10------10-------10-----------------------------------------------|
G|-----------12-12----12-12----11b11b11b11b----------------------------------|
D|---------------------------------------------------------------------------|
A|---------------------------------------------------------------------------|
E|---------------------------------------------------------------------------|

Verse One 0:18-0:46

e|---------------------------------------------------------------------------|
B|-----------3333---3-3-3-3---3-3-3-3---3-3-3-3------------------3-----------|
G|------0000-0000---0-0-0-0---0-0-0-0---0-0-0-0----------2222-2--0-----------|
D|2-2-2-4444--------0-0-0-0---0-0-0-0---0-0-0-0--2-2-2-2-2222-2--0-----------|
A|2-2-2-------------3-3-3-3---3-3-3-3---3-3-3-3--2-2-2-2-2222-2--3-----------|
E|2-2-2------------------------------------------2-2-2-2-2222-2--------------|

e|---------------------------------------------------------------------------|
B|------3-----3-3-3-3-3-3-3----7--7-7-7-7-7-7---7-7--7-7---7--7-7-7-7-7-7----|
G|--------0---0-0-0-0-0-0-0----0--0-0-0-0-0-0---0-0--0-0---0--0-0-0-0-0-0----|
D|--4-------4-4-4-4-4-4-4-4----0--0-0-0-0-0-0---0-0--0-0---0--0-0-0-0-0-0----|
A|5---5-------5-5-5-5-5-5-5----7--7-7-7-7-7-7---7-7--7-7---7--7-7-7-7-7-7----|
E|---------------------------------------------------------------------------|

e|----------------------------------------------15---------------------------|
B|--------7/3p0--7--7-7-7-7-7-7--10/12-10----------13---7--7-7-7-7-7-7-------|
G|---------------0--0-0-0-0-0-0-----------12-11---------0--0-0-0-0-0-0-------|
D|5/7-0----------0--0-0-0-0-0-0-------------------------0--0-0-0-0-0-0-------|
A|------5--------7--7-7-7-7-7-7-------------------------7--7-7-7-7-7-7-------|
E|---------------------------------------------------------------------------|

Verse Two 0:46-1:05

e|--------------------------------------0-----0------------------------------|
B|-------------------------------3------0-----0--3----------------3----------|
G|-------------------------------0------0-----0--0----------------0--------0-|
D|4-4-4/2-2-2/5-5-5/4-4-4--5--4--0--2-1---2-1----0--5-5-55554-4-4-0-2-2------|
A|5-5-5/3-3-3/7-7-7/5-5-5--2--0--3--2-1---2-1----3--2-2-22220-0-0-3-2-2-2/5-5|
E|-------------------------2--0-----2-1---2-1-------2-2-22220-0-0------------|

Riff One 1:05-1:39

e|------0--------------------------------------------------------------------|
B|--------3---------8-7-0----------------------------------------------------|
G|----------0---------------------12----------7-----0------------------------|
D|--2-----------0------------7-------7------5-----4---(x2)-------------------|
A|3---3-------7---7-------10---10------10-7-----5----------------------------|
E|---------------------------------------------------------------------------|

e|-----------------------------------------------------------10-10-----------|
B|------5-5-5------------------------------5-5-5-7-7-7-8-8-8-------8-8-------|
G|------------7-7-7----------------------------------------------------------|
D|------------------5-5-5-4-4-4h5p4p0----------------------------------------|
A|3-3-3-------------------------------3-3-3----------=-----------------------|
E|---------------------------------------------------------------------------|

e|10-10-10-------------------------------------------------------------------|
B|---------8-8-8-7-7-7-7-7-7-7-7-7-7-7-7-------------------------------------|
G|---------------------------------------------------------------------------|
D|---------------------------------------5--5-5--5-4--4-4-4-4-4-4------------|
A|---------------------------------------2--2-2--2-0--0-0-0-0-0-0------------|
E|---------------------------------------2--2-2--2-0--0-0-0-0-0-0------------|

Chugging 1:39-2:23

e|-----0---------------------------------------------------------------------|
B|-----3---3-----------------------------------------------------------------|
G|-----0---0------------------0-----0----------------------------------------|
D|4--x---x-0---4--x-9---x-5-4---4-----4---5-5-----5-5-----5-5---4-9--4-4-----|
A|2--x---x-3---2--x-10--x-7-5-----5-----5-2-2-----2-2-----2-2---5-10-5-7-----|
E|2--x---x-----2--x-----x-----------------2-2-00002-2-00002-2-0-5-10-5-------|

Chorus 2:23-End

e|---------------------------------15-15-15----------------------------------|
B|-------3-12-10---------3-----7------------13-13-13----------13-13-13-------|
G|---------------12-11-----0-----4-------------------12-12-12----------------|
D|5--------------------------------------------------------------------------|
A|2-(x8)---------------3-----5-----------------------------------------------|
E|2--------------------------------------------------------------------------|

e|---------------------------------------------------------------------------|
B|12h13p12/10-------10---10--------------------------------------------------|
G|------------12-12----12---12-11-11-11-11-11-11-11--------------------------|
D|---------------------------------------------------------------------------|
A|---------------------------------------------------------------------------|
E|---------------------------------------------------------------------------|

************************************

| /   slide up
| \   slide down
| h   hammer-on
| p   pull-off
| ~   vibrato
| +   harmonic
| x   Mute note
| b   Bend
| pb  Pre-bend
| br  Bend release
| pbr Pre-bend release
| brb Bend release bend

************************************
Добавлено: 16.11.2015
Вам также может быть интересно:
Другие материалы по этой песне:
  • Аккорды и текст

Страница создана 16.11.2015
http://primanota.ru/until-we-are-ghosts/wearing-thin-chords.htm
Привет, Гость.
Предлагаем пройти революционный курс по гитаре.
Подарок от PrimaNota.Ru, забирай!