PrimaNota.ru - самый крупный в мире бесплатный архив песенных текстов, аккордов, табулатур и нот


Until We Are Ghosts - Repression - таба, видео

Регистрация Запомнить меня
Войти через:  Facebook Google Twitter Vk Yandex Mail.ru

Until We Are Ghosts - Repression - таба, видео

Печатать
Просмотров: 112
Уроки эстрадного вокала в Санкт-Петербурге
-------------------------------------------------------------------------------
                             Until We Are Ghosts - Repression
-------------------------------------------------------------------------------

Tuning: Drop C


Intro 0:00-0:13

e|--------0--------------------------------x-x---000-------------------------|
B|--------0----12-12-12-12-12-12-12-12-----x-x---777-------------------------|
G|--------0----12-12-12-12-12-12-12-12-----x-x---000-------------------------|
D|6-5-2-5------10-10-10-10-10-10-10-10-6---x-x-------6-5--0-2-5-8---5-4-1----|
A|6-5-2-5------10-10-10-10-10-10-10-10-6---x-x-------6-5--0-2-5-6---5-4-1----|
E|6-5-2-5------------------------------6---x-x-------6-5--0-2-5-----5-4-1----|

Riff One 0:13-0:28

e|---------------------------------------------------------------------------|
B|---------------------------------------------------------------------------|
G|---------------------------------------------------------------------------|
D|------8------5-------8------5----5-------8------5-------8------5----5----7-|
A|6-5-0-6-4------6-5-0-6-4-----------6-5-0-6-4------6-5-0-6-4----------------|
E|6-5-0---4-0h4--6-5-0---4-0h4--0h4--6-5-0---4-0h4--6-5-0---4-0h4--0h4--0h4--|
                                    (x2)

Breakdown 0:28-0:57
e|0--------------------------------------------------------------------------|
B|0--------------------------------------------------------------------------|
G|0--------------------------------------------------------------------------|
D|--0-1-4--4---44-44----5p0-----------5----5----5---7-----5----5---5---------|
A|--0-1-4--4---44-44-------2/4-4p0-----------------5-5------------7-5-2/4-4p0|
E|--0-1-4--4---44-44-0h4-----------0h4--0h4--0h4--4----0h4--0h4--4-----------|

e|---0-----------------------------------------------------------------------|
B|---0--------------------------------------7--------------------------------|
G|---0----------------------------------------0------------------------------|
D|4--7~----77777-7-8-7-7-----7----7-------0----------------------------------|
A|4---5~---55555-5-6-5--5-----5----5----7------------------------------------|
E|4----4~--44444-4---4---4-----4----4-0--------------------------------------|

e|---------------------------------------------------------------------------|
B|----------------------------------------------7-7-7-7----------------------|
G|----------------------------------------------0-0-0-0----------------------|
D|44---7---77777---7---7--------4-----7-----7---0-0-0-0----------------------|
A|44----5--55555----5---5-------4-----5-----5---7-7-7-7----------------------|
E|44-----4-44444-----4---4------4-0h4-4-0h4-4-0------------------------------|

Chorus 1:05-1:12

e|---2-----------------------------------------------------------------------|
B|3--3-----------------------------------------------------------------------|
G|2--0-----------------------------------------------------------------------|
D|4--4-----------------------------------------------------------------------|
A|2--------------------------------------------------------------------------|
E|2--------------------------------------------------------------------------|
Tapping durring Chorus 1:12-1:21
 
e|7p2------------7p2-----------7p2------------7p2------------7p2-------------|
B|---7/8/7p3-5p3----7/8/7p3-7p----7/8/7p3-5p2----7/8/7p3-7p3----7/8/7p3-5p3--|
G|---------------------------------------------------------------------------|
D|---------------------------------------------------------------------------|
A|---------------------------------------------------------------------------|
E|---------------------------------------------------------------------------|

e|7p2------------------------------------------------------------------------|
B|---7/8p3-----7p3-----------------------------------------------------------|
G|--------7/9p4--------------------------------------------------------------|
D|---------------------------------------------------------------------------|
A|---------------------------------------------------------------------------|
E|---------------------------------------------------------------------------|

Chorus and Riff Two 1:21-2:03
e|---------------0-------------10--------------------------------------------|
B|-------15------3-7-3--7h8p7h8--8-7-5-----5---5-7---7-8--8---8---5--5-8/7---|
G|---------------4-0-0-----------------7-----7-----7-----7--7---7---7--------|
D|12-2-0-12-2-0--0-0-4-------------------------------------------------------|
A|10-2-0-10-2-0--3-7-3-------------------------------------------------------|
E|10-2-0-10-2-0--------------------------------------------------------------|
Outro 2:03-End
e|2-3-2--2----2------2------2----2-----2------2---2--------------------------|
B|--------3---3--------3------3--3-------3------3---3---3--------------------|
G|------------0------------------0--------------------0----------------------|
D|------------4--4-4-----4-4-----4-4-4----4-4--------------------------------|
A|---------------------------------------------------------------------------|
E|---------------------------------------------------------------------------|



************************************

| /   slide up
| \   slide down
| h   hammer-on
| p   pull-off
| ~   vibrato
| +   harmonic
| x   Mute note
| b   Bend
| pb  Pre-bend
| br  Bend release
| pbr Pre-bend release
| brb Bend release bend

************************************
Добавлено: 16.11.2015
Другие материалы по этой песне:
  • Аккорды и текст

Страница создана 16.11.2015
http://primanota.ru/until-we-are-ghosts/repression-chords.htm
Привет, Гость.
Предлагаем пройти революционный курс по гитаре.
Подарок от PrimaNota.Ru, забирай!