PrimaNota.ru - самый крупный в мире бесплатный архив песенных текстов, аккордов, табулатур и нот


Until We Are Ghosts - Deserter - таба, видео

Регистрация Запомнить меня
Войти через:  Facebook Google Twitter Vk Yandex Mail.ru

Until We Are Ghosts - Deserter - таба, видео

Печатать
Просмотров: 102
Уроки эстрадного вокала в Санкт-Петербурге
-------------------------------------------------------------------------------
                            Until We Are Ghosts - The Deserter
-------------------------------------------------------------------------------


Tuning: Drop C

Intro 0:00-1:44

e|---------------------------------------------------------------------------|
B|---------------------------------------------------------------------------|
G|6------6-----7-6----6--------6-------7-6-------6---------7-6---------------|
D|--7------7-------7----7--------7---------7-------7-----------7-------------|
A|----7------5-----------5-/7------7-----------------5-----------------------|
E|---------------------------------------------------------------------------|

Fast Rhythm 1:44-2:09
e|---------------------------------------------------------------------------|
B|---------------------------------------------------------------------------|
G|9----6---13---8------------------------------------------------------------|
D|11---7---14---9------------------------------------------------------------|
A|11---7---14---9------------------------------------------------------------|
E|11---7---14---9------------------------------------------------------------|

Whatever This Is Called 2:09-2:50
e|--9---7/9p0----------------9---7/9-0---0---------------9-7-----------------|
B|------------9-7-7(b)p5p0-------------4---4---------------------------------|
G|6---6--------------------6---6-------------4-(x3)---/6---------------------|
D|---------------------------------------------------------------------------|
A|---------------------------------------------------------------------------|
E|---------------------------------------------------------------------------|

Chorus 2:50-End
e|--9-7-------9-7-------9-7-7-7-----------0-------9-7-------9-7--------------|
B|------9-7-------9-4-----------9-9-9-7-7---4---------9-4-------9-4----------|
G|6---------6---------6-----------------------4-6---------6------------------|
D|---------------------------------------------------------------------------|
A|---------------------------------------------------------------------------|
E|---------------------------------------------------------------------------|



************************************

| /   slide up
| \   slide down
| h   hammer-on
| p   pull-off
| ~   vibrato
| +   harmonic
| x   Mute note
| b   Bend
| pb  Pre-bend
| br  Bend release
| pbr Pre-bend release
| brb Bend release bend

************************************
Добавлено: 16.11.2015
Другие материалы по этой песне:
  • Аккорды и текст

Страница создана 16.11.2015
http://primanota.ru/until-we-are-ghosts/deserter-chords.htm
Привет, Гость.
Предлагаем пройти революционный курс по гитаре.
Подарок от PrimaNota.Ru, забирай!