PrimaNota.ru - самый крупный в мире бесплатный архив песенных текстов, аккордов, табулатур и нот


Until We Are Ghosts - Dead Ends - таба, видео

Регистрация Запомнить меня
Войти через:  Facebook Google Twitter Vk Yandex Mail.ru

Until We Are Ghosts - Dead Ends - таба, видео

Печатать
Просмотров: 103
-------------------------------------------------------------------------------
                             Until We Are Ghosts - Dead Ends
-------------------------------------------------------------------------------


Tuning: Drop C

Intro 0:00-0:20
e|---------------------------------------------------------------------------|
B|---------------------------------------------------------------------------|
G|---0---------0-------------------------------------------------------------|
D|-----0---------4--2---3/5-5-5/3-3-8----------------------------------------|
A|2/3-----3-3/5-----2---3/5-5-5/3-3-6-7-14-----------------------------------|
E|------------------2---3/5-5-5/3-3---5-12-----------------------------------|

Verse One 0:20-0:36
e|------------------------------------------0--------------------------------|
B|------------------------------------------0--------------------3-5---------|
G|------------------------------------------0--------------------0-0---------|
D|2-0-2-2----2-0-2-2--2-0-2-2-0-----2-0-2-2----2-0-2-2--2-0-2-2--2-4--2-0-2-2|
A|2-0-2-2----2-0-2-2--2-0-2-2---4---2-0-2-2----2-0-2-2--2-0-2-2--3-5--2-0-2-2|
E|2-0-2-2----2-0-2-2--2-0-2-2-------2-0-2-2----2-0-2-2--2-0-2-2-------2-0-2-2|

0:38-0:55
e|---------------------------------------------------------------------------|
B|---------------------------------------------------------------------------|
G|---------------------------------------------------------------------------|
D|4---------4-4-----4-4-----4-4-----4-4---4---------7------11-7-4-7-4-0------|
A|2-(x32)---3-3-22223-3-22223-3-22223-3---2-(x32)---5-(24)-------------------|
E|2---------2-2-00002-2-00002-2-00002-2-------------4------------------------|

Chug Part 0:55-1:13
e|---------------------5+-------5+-------------------------------------------|
B|---------------------5+-------5+-------------------------------------------|
G|4~-4-4-4-4-4-----4-4-5+-4-4-4-5+-4-----------------0-----2h4p2-----------11|
D|x--x-x-x-x---0---x-x-5+-x-x-x-5+-x-(x2)-4~-4-4-4-4---4---------4h5p4---7-12|
A|3~-3-3-3-3-----3-3-3-5+-3-3-3-5+-3------2~-2-2-2-2-----2-------------5-5-10|
E|2~-2-2-2-2-------2-2-5+-2-2-2-5+-2-------------------------------------4-10|

Build up/Clean Part 1:13-1:39
e|0-0-----------------------------------------------------------------------|
B|3-3-----------------------------------------------------------------------|
G|0-0----0---------0-------------0-----------0---------0---------0----------|
D|2-2------0---------4-------5-----5---5-------0---------4---4-----4---4(x2)|
A|3-3-2/3----3-3/5-----5-5/7---7-----7---2/3-----3-3/5-----2---2-----2------|
E|--------------------------------------------------------------------------|

Breakdown 1:39-2:05

e|-----------------3-2----------------------------------3-2------|
B|---0-------------3---3--------------------------------3---3----|
G|-----4-----------------4--------------------7---------------4--|
D|---------2-2-0-0---------2-2-0-0---0------5---2-2-0-0----------|
A|/5-------2-2-0-0---------2-2-0-0---0--5-9-----2-2-0-0----------|
E|---------2-2-0-0---------2-2-0-0---0----------2-2-0-0----------|

e|--------------------------------|
B|--------------------------------|
G|--------------------------------|
D|2-2-0---------------------------|
A|2-2-0-0000-0000-0000-00000-0-0--|
E|2-2-0-0000-0000-0000-00000-0-0--|

Riff One 2:05-2:24
e|--------------------------------------------------------------------------|
B|-----------------------------------------0-0-------------------0-0--------|
G|--------------------4p2p0-------11p0-----4-4-------0-0-0-0-----4-4-4------|
D|2-0-----2-0---2-0---------5p4p0------2-0-------2-0-4-4-4-4-2-0-----2-0-2--|
A|2-0-----2-0---2-0--------------------2-0-------2-0---------2-0-----3-0-2--|
E|2-0-----2-0---2-0--------------------2-0-----0h2-0---------2-0-------0-2--|

e|--------------------------------------|
B|--------------------------------------|
G|4-------4--------------4-------4------|
D|2-0-2---2-0-2----------2-0-2---2-0-2--|
A|3-0-2---3-0-2---00000--3-0-2---3-0-2--|
E|--0-2-----0-2---00000----0-2-----0-2--|

Riff Two 2:24-2:58
e|---------------------------------------------------------------------------|
B|---------------------------------------------------------------------------|
G|12-11--------------------11h12------11h12-11h12------11h12------11h12-11h12|
D|------12-9------(x2)9h11-------9h11-------------9h11-------9h11------------|
A|-----------10--------------------------------------------------------------|
E|--------------12-----------------------------------------------------------|

e|---------------------------------------------------------------------------|
B|----------------------------------------------------------0-0--------------|
G|----------------------------------12-11-------------------4-4-------0-0-0-0|
D|-----11h12------11h12-11h12-11h12-------12-9-----(x2)-2-0-------2-0-4-4-4-4|
A|9h11-------9h11------------------------------10-------2-0-------2-0--------|
E|------------------------------------------------12----2-0-----0h2-0--------|
*Repeat Riff Two*

 2:58-End
e|-------------------------------------------------------------------------------------|
B|-------------------------------------------------------------------------------------|
G|-------------------------------------------------------------------------------------|
D|2-0---2-0---2------------------------------------------------------------------------|
A|2-0---2-0---2------------------------------------------------------------------------|
E|2-0-0h2-0-0h2------------------------------------------------------------------------|

************************************

| /   slide up
| \   slide down
| h   hammer-on
| p   pull-off
| ~   vibrato
| +   harmonic
| x   Mute note
| b   Bend
| pb  Pre-bend
| br  Bend release
| pbr Pre-bend release
| brb Bend release bend

************************************
Добавлено: 16.11.2015
Другие материалы по этой песне:
  • Аккорды и текст

Страница создана 16.11.2015
http://primanota.ru/until-we-are-ghosts/dead-ends-chords.htm
Привет, Гость.
Предлагаем пройти революционный курс по гитаре.
Подарок от PrimaNota.Ru, забирай!