PrimaNota.ru - самый крупный в мире бесплатный архив песенных текстов, аккордов, табулатур и нот


Unseen - The Brutal truth - таба, видео

Регистрация Запомнить меня
Войти через:  Facebook Google Twitter Vk Yandex Mail.ru

Unseen - The Brutal truth - таба, видео

Печатать
Просмотров: 97
Уроки эстрадного вокала в Санкт-Петербурге
GUITAR 1
e------------------------------------------------------|
B------------------------------------------------------|
G------------------------------------------------------|(play 7x last time stop at)
D--9-12-11-9--------9-12-11-9-12-14--        D---------|
A------------12-10-9-----------------        A---9-----|
E------------------------------------        E---------|
GUITAR 2
e-----------------------------|
B-----------------------------|
G-----------------------------|
D--9--------------------------|x4
A--9--------------------------|
E--7--------------------------|

e--------------------------------|
B--------------------------------|
G--------------------------------|x2
D--9-7-5-4-----------------------|
A--9-7-5-4-----------------------|
E--7-5-3-2-----------------------|

e--------------------------------|
B--------------------------------|
G--------------------------------|x2 (palm mute)
D--999999-777777-555555-444444---|
A--999999-777777-555555-444444---|
E--777777-555555-333333-222222---|

e--------------------------------------|
B--------------------------------------|
G---------777777-999999-121212121212---|x1 (palm mute)
D--999999-777777-999999-121212121212---|
A--999999-555555-777777-9-9-9-9-9-9----|
E--777777------------------------------|

e-----------------------|
B-----------------------|
G-----------------------|
D--999999-777777-5-7-4--|(palm mute all except last 3
A--999999-777777-5-7-4--| chords)
E--777777-555555-3-5-2--|
Добавлено: 12.08.2013
Другие материалы по этой песне:

Страница создана 10.07.2012
http://primanota.ru/unseen/the-brutal-truth-chords.htm
Привет, Гость.
Предлагаем пройти революционный курс по гитаре.
Подарок от PrimaNota.Ru, забирай!