PrimaNota.ru - самый крупный в мире бесплатный архив песенных текстов, аккордов, табулатур и нот


Unseen - Social Damage - текст песни, таба, бас-таба, видео

Регистрация Запомнить меня
Войти через:  Facebook Google Twitter Vk Yandex Mail.ru

Unseen - Social Damage - текст песни, таба, бас-таба, видео

Печатать
Просмотров: 89
-----------------------------------------------------------------------
			     Social Damage - The Unseen
-----------------------------------------------------------------------
Tabbed by:SumXnofx

Tuning:Standard
Lead Intro:
e|--------------------------------------------------------------|
B|--------------------------------------------------------------|
G|------------------------------------------642-----------------|
D|------------------------------------------------do that ------|
A|----2h4p2----2h4p2----2h4p2----420—x2-----------at end of-----|
E|-22-------55-------00-------00---------00-------second time---|
Rhythm Intro:
e|------------------------------------------|
B|------------------------------------------|
G|------------------------------------------|
D|-44-------77-------22-------2-~-----------|
A|-44-------77-------22-------2-~-----------| x2
E|-22-------55-------00-------0-~-----------|
Lead second Intro:
e|-----------------------------------------|
B|-----------------------------------------|
G|-------4h6p4-----4h6p4----4h6p4----642---|
D|---44---------77-------22-------22-------|
A|-----------------------------------------| X2
E|-----------------------------------------|
Rhythm Second Intro:
e|-------------------------------|
B|-------------------------------|
G|-------------------------------|       maybe not exact number of
D|-44444--77777--22222222--------|       strums but u can get the idea
A|-44444--77777--22222222--------|X2
E|-22222--55555--00000000--------|
Verse Both Guitars:
e|----------------------------------------------------------|
B|----------------------------------------------------------|
G|--------777777----------------------777777----------------|
D|-444444-777777-77777777-66--444444--777777-7777xxxxx-66---|
A|-444444-555555-77777777-66--444444--555555-7777xxxxx-66---|x2
E|-222222--------55555555-44--222222---------5555xxxxx-44---|
Chorus Both Guitars:
e|----------------------------------------------------|
B|----------------------------------------------------|
G|--444444--777777------------------------------------|
D|--444444--777777--7777777777------------------------|
A|--222222--555555--77777777777-----------------------|
E|------------------55555555555-----------------------|

Second intro again
Verse again
Chorus again

After chorus part
e|-------|
B|-------|
G--------|
D|-444---|
A|-444---| repeat as many times needed
E|-222---|   ..
   XX

Play second intro again
Play Chorus again
End with part after chorus
Добавлено: 20.11.2013
Другие материалы по этой песне:

Страница создана 27.03.2012
http://primanota.ru/unseen/social-damage-chords.htm
Привет, Гость.
Предлагаем пройти революционный курс по гитаре.
Подарок от PrimaNota.Ru, забирай!