PrimaNota.ru - самый крупный в мире бесплатный архив песенных текстов, аккордов, табулатур и нот


Unseen - On The Other Side Sceam Out - таба, видео

Регистрация Запомнить меня
Войти через:  Facebook Google Twitter Vk Yandex Mail.ru

Unseen - On The Other Side Sceam Out - таба, видео

Печатать
Просмотров: 87
Band - The Unseen
Song - On the Other Side & Scream Out
Album - State of Discontent
Tuning - Standard (E A D G B e)

/ = slide
. = palm mute
h = hammer on
p = pull off

  /////---------------\\\\\
 /////ON THE OTHER SIDE\\\\\
/////-------------------\\\\\

Intro (0:00 - 0:10) x2
||-------------------------------------||
||-------------------------------------||
||-2--3--0--2--3--0--2--3--0-----------||
||-0--0--0--0--0--0--0--0--0--2--3--5--||
||----------------------------3--3--3--||
||-------------------------------------||

  (0:11 - 0:29) x4
||------------------------------------------||
||------------------------------------------||
||-2--3--2-2-2--3--2-2-2--3--2-2--5-5--5-5--||
||-0--0--0-0-0--0--0-0-0--0--0-0--0-0--0-0--||
||------------------------------------------||
||------------------------------------------||

Verse (0:30 - 0:52)
||-------------------------------------||
||-------------------------------------||
||-2-2-3-2--2-2-3-2--------------------||
||-0-0-0-0--0-0-0-0--2-2-3-2--2-2-3-5--||
||-------------------3-3-3-3--3-3-3-3--||
||-------------------------------------||

  (0:53 - 1:27)
||----------------------------------------------------------------------|
||----------------------------------------------------------------------|
||-----8/7-------8/10----------8/7--8/10--------------------88877778-10-|
||-7---8/7---7---8/10--10--7---8/7--8/10--10--8/10-7-777777-88877778-10-|
||-7---6/5---7---6/8---10--7---6/5--6/8---10--8/10-7-777777-66655556-8--|
||-5---------5---------8---5--------------8---6/8--5-555555-------------|
                                                     ...... ........
--------------------------------------------------------------------------|
--------------------------------------------------------------------------|
-101010101010-----------------------88877778-10-101010101010--------------|
-101010101010-101010888810-7-777777-88877778-10-101010101010-101010888810-|
-8-8-8-8-8-8--101010888810-7-777777-66655556-8--8-8-8-8-8-8--101010888810-|
--------------8-8-8-66668--5-555555--------------------------8-8-8-66668--|
 ............ ............   ...... ........    ............ ............

----------------------------------------------------------------------------|
----------------------------------------------------------------------------|
----------88877778-10-101010101010-----------------------88877778-10-101010-|
-7-777777-88877778-10-101010101010-101010888810-7-777777-88877778-10-101010-|
-7-777777-66655556-8--8-8-8-8-8-8--101010888810-7-777777-66655556-8--8-8-8--|
-5-555555--------------------------8-8-8-66668--5-555555--------------------|
   ...... ........    ...........  ............   ...... ........    ......
--------------------------------------||
--------------------------------------||
-101010----------------------7--------||
-101010-101010888810--7-7-7--7--------||
-8-8-8--101010888810--7-7-7--5--------||
--------8-8-8-66668---5-5-5-----------||
 ...... .........

Bridge (1:28 - 1:37) x2
||----------------------------------||
||----------------------------------||
||-22200022333222002220002233322200-||
||-00000000000000003333333333333333-||
||----------------------------------||
||----------------------------------||
   ................................
Chorus (1:38 - 2:05) x6
||-----------------------------------||
||-----------------------------------||
||-2--0--2-3--2--0--2--0--2-3--2--0--||
||-0--0--0-0--0--3--3--3--3-3--3--3--||
||-----------------------------------||
||-----------------------------------||

  (2:06 - 2:25) x4
||--------------------------------||
||--------------------------------||
||-7---77777777-------------------||
||-7---77777777-3-3-333-5-55-5555-||
||-5---55555555-3-3-333-5-55-5555-||
||--------------1-1-111-3-33-3333-||

  (2:26 - 2:34) x2
||----------------------------------||
||----------------------------------||
||-22200022333222002220002233322200-||
||-00000000000000003333333333333333-||
||----------------------------------||
||----------------------------------||
   ................................

  /////--------\\\\\
 /////SCREAM OUT\\\\\
/////------------\\\\\

Intro (0:00 - 0:09) x2
||-------------------------------------||
||-------------------------------------||
||-77777777-55555555-33333333-55555555-||
||-77777777-55555555-33333333-55555555-||
||-55555555-33333333-11111111-33333333-||
||-------------------------------------||
   ........ ........ ........ ........
  (0:10 - 0:19) x2
||-------------------------------------------------||
||-------------------------------------------------||
||-7-x-7-x-7-x-5-x-5-x-5-x-3-x-3-x-3-x-5-x-5-x-5-x-||
||-7-x-7-x-7-x-5-x-5-x-5-x-3-x-3-x-3-x-5-x-5-x-5-x-||
||-5-x-5-x-5-x-3-x-3-x-3-x-1-x-1-x-1-x-3-x-3-x-3-x-||
||-------------------------------------------------||

Intro Solo (0:20 - 0:29) x2
||----------------------------------------------||
||-3--6p5h6p5h6----6p5h6p56----6-5-6----6-5-3-1-||
||--------------5-----------3------- 5----------||
||----------------------------------------------||
||----------------------------------------------||
||----------------------------------------------||

Verse (0:30 - 0:50) x4
||-------------------------------------------------|-------------------||
||-------------------------------------------------|-------------------||
||-7-x-7-x-7-x-5-x-5-x-5-x-3-x-3-x-3-x-5-x-5-x-5-x-|-3-333333-5-555555-||
||-7-x-7-x-7-x-5-x-5-x-5-x-3-x-3-x-3-x-5-x-5-x-5-x-|-3-333333-5-555555-||
||-5-x-5-x-5-x-3-x-3-x-3-x-1-x-1-x-1-x-3-x-3-x-3-x-|-1-111111-3-333333-||
||-------------------------------------------------|-------------------||
                                                       ......   ......
Chorus (0:51 - 1:00) x2
||-----------------------------------------||
||-----------------------------------------||
||-7--7-7-7--3--3-3-3------------5--5-5-5--||
||-7--7-7-7--3--3-3-3--3--3-3-3--5--5-5-5--||
||-5--5-5-5--1--1-1-1--3--3-3-3--3--3-3-3--||
||---------------------1--1-1-1------------||

  (1:01 - 1:10) x2
||----------------------------------------------||
||-3--6p5h6p5h6----6p5h6p56----6-5-6----6-5-3-1-||
||--------------5-----------3------- 5----------||
||----------------------------------------------||
||----------------------------------------------||
||----------------------------------------------||

Verse (1:11 - 1:30) x4
||-------------------------------------------------|-------------------||
||-------------------------------------------------|-------------------||
||-7-x-7-x-7-x-5-x-5-x-5-x-3-x-3-x-3-x-5-x-5-x-5-x-|-3-333333-5-555555-||
||-7-x-7-x-7-x-5-x-5-x-5-x-3-x-3-x-3-x-5-x-5-x-5-x-|-3-333333-5-555555-||
||-5-x-5-x-5-x-3-x-3-x-3-x-1-x-1-x-1-x-3-x-3-x-3-x-|-1-111111-3-333333-||
||-------------------------------------------------|-------------------||
                                                       ......   ......
Chorus (1:31 - 1:49) x4
||-----------------------------------------||
||-----------------------------------------||
||-7--7-7-7--3--3-3-3------------5--5-5-5--||
||-7--7-7-7--3--3-3-3--3--3-3-3--5--5-5-5--||
||-5--5-5-5--1--1-1-1--3--3-3-3--3--3-3-3--||
||---------------------1--1-1-1------------||

[At the Same Time] (1:41 - 1:49) x2
||--------------------------------------------||
||-3--6-5-6--3--6-5-6-----6-5-6--8--6-5--1/3--||
||---------------------5----------------------||
||--------------------------------------------||
||--------------------------------------------||
||--------------------------------------------||

Solo (1:50 - 2:06) x14
||-1010---------------||
||------1111-1010-----||
||----------------12--||
||--------------------||
||--------------------||
||--------------------||

  (2:07 - 2:10)
||---------------------------------------------------||
||---------------------------------------------------||
||-3-3--3-3-3--3-3-3--3-3-3--5--5-5-5-5-5-5-5-5-5-5--||
||-3-3--3-3-3--3-3-3--3-3-3--5--5-5-5-5-5-5-5-5-5-5--||
||-1-1--1-1-1--1-1-1--1-1-1--3--3-3-3-3-3-3-3-3-3-3--||
||---------------------------------------------------||

Chorus (2:11 - 2:40) x6
||-----------------------------------------||
||-----------------------------------------||
||-7--7-7-7--3--3-3-3------------5--5-5-5--||
||-7--7-7-7--3--3-3-3--3--3-3-3--5--5-5-5--||
||-5--5-5-5--1--1-1-1--3--3-3-3--3--3-3-3--||
||---------------------1--1-1-1------------||

[At the Same Time] (2:21 - 2:30) x2
||--------------------------------------------||
||-3--6-5-6--3--6-5-6-----6-5-6--8--6-5--1/3--||
||---------------------5----------------------||
||--------------------------------------------||
||--------------------------------------------||
||--------------------------------------------||

End Solo (2:30 - 2:40) x2 [While Chorus is Still Going]
||-1010-------------1010--------------------------------------------------||
||-----1111-1010---------1111-1010----1313-1111-1010----1313-1111-1010----||
||---------------12----------------12----------------12----------------12-||
||------------------------------------------------------------------------||
||------------------------------------------------------------------------||
||------------------------------------------------------------------------||

End On (2:40 - 2:51) [Let Ring Out]
||----------||
||----------||
||-7--------||
||-7--------||
||-5--------||
||----------||
Добавлено: 23.07.2013
Другие материалы по этой песне:
  • Аккорды и текст

Страница создана 23.07.2013
http://primanota.ru/unseen/on-the-other-side-sceam-out-chords.htm
Привет, Гость.
Предлагаем пройти революционный курс по гитаре.
Подарок от PrimaNota.Ru, забирай!