PrimaNota.ru - самый крупный в мире бесплатный архив песенных текстов, аккордов, табулатур и нот


Unseen - Dead Weight - таба, видео

Регистрация Запомнить меня
Войти через:  Facebook Google Twitter Vk Yandex Mail.ru

Unseen - Dead Weight - таба, видео

Печатать
Просмотров: 105
Уроки эстрадного вокала в Санкт-Петербурге
Dead Weight Tab
By The Unseen

tabbed by : punchmywalk
This is an awsome song, almost as awsome as me.
Contact me by going to youtube and finding user member punchmywalk

Key
*-let ring
/-slide up


INTRO
2 open Palm mutes inbetween chords.
---------------------------------------------|
---------------------------------------------|
-9--7--9--10--9--7--9--7--5--7--5-4----------|
-7--5--7--8---7--5--7--5--3--5--3-2----------|
---------------------------------------------|
---------------------------------------------|
2nd time around
---------------------------------------------|
---------------------------------------------|
-9--7--9--10--9--7--9--7--5--7---------------|
-7--5--7--8---7--5--7--5--3--5---------------|
---------------------------------------------|
---------------------------------------------|

the first time this is played they skip some notes and they let some notes ringer longer, listen closley
x2
-----------------------------------------------------------------------|
-----------------------------------------------------------------------|
-----------------------------------------------------------------------|
-----------------------------------------------------------------------|
-7*----5*------7*-------8*---7----5---7----5---3---5---3----2----------|
-----------------------------------------------------------------------|
-----------------------------------------------------------------------|


VERSE
x2
friends like  you who needs enemies...
--------------------------------------------------------|
--------------------------------------------------------|
---------------------------------------7*--5*--7*---5*--|
7-7---7----7-7---7---3-3---3---3-3-----5*--3*--5*---2*--|
--------------------------------------------------------|
--------------------------------------------------------|

PRE-CHORUS
stab in the back.....
X2
-------------------------------------------------------|
-------------------------------------------------------|
-9-9--9--9-9--9---5-5--5--5-5--5/7/5/5/4---------------|
-7-7--7--7-7--7---3-3--3--3-3--3/5/3/5/2---------------|
-------------------------------------------------------|
-------------------------------------------------------|


CHORUS
x3

------------------------------------------------------------------|
------------------------------------------------------------------|
-55--5--55---5--77--7--77-7--7-99--7--7-99--7--7-99--7--7-99------|
-33--3--33---3--55--5--55-5--5/77--5--5/77--5--5/77--5--5/77------|
------------------------------------------------------------------|
------------------------------------------------------------------|

on the 4th time
-----------------------------------------------------------------|
-----------------------------------------------------------------|
-55--5--55---5--77--7--77--4-------------------------------------|
-33--3--33---3--55--5--55--2-------------------------------------|


PRE-CHORUS AGAIN
X2
-------------------------------------------------------|
-------------------------------------------------------|
-9-9--9--9-9--9---5-5--5--5-5--5/7/5/5/4---------------|
-7-7--7--7-7--7---3-3--3--3-3--3/5/3/5/2---------------|
-------------------------------------------------------|
-------------------------------------------------------|

CHORUS AGAIN
x3

------------------------------------------------------------------|
------------------------------------------------------------------|
-55--5--55---5--77--7--77-7--7-99--7--7-99--7--7-99--7--7-99------|
-33--3--33---3--55--5--55-5--5/77--5--5/77--5--5/77--5--5/77------|
------------------------------------------------------------------|
------------------------------------------------------------------|

on the 4th time
--------------------------------------------|
--------------------------------------------|
-55--5--55---5--77--7--77--4*--4------------|
-33--3--33---3--55--5--55--2*--2------------|
--------------------------------------------|
--------------------------------------------|
BREAKDOWN
1:34
-------------------------------------|
-------------------------------------|
-------------------------------------|
-77-5-77-5-77-5-77-5-77--------------|
-------------------------------------|
-------------------------------------|

1:47
-------------------------------------|
-------------------------------------|
-9------5--5-------7----7------------|
-7-x12--3------3---5-------5---------|
-------------------------------------|
-------------------------------------|

SOLO
2:09
------------------------------------------------------------------|
-/9b-/9b-/9b-7----------------------------------------------------|
---------------10-7--------7-9-7----7-----------------------------|
---------------------/7-10-------10----10-9h-10-about 8 times-----|
------------------------------------------------------------------|
------------------------------------------------------------------|

2:14
------------------------------------------------------------------|
---------/8-8-8-/10-10-10-/12-12-12-/15-15--/13-13-13-/15-15------|
-/9-9-9-----------------------------------------------------------|
------------------------------------------------------------------|
------------------------------------------------------------------|
------------------------------------------------------------------|

x4
2:20

-/12-12-/12--15-12------------------------------------------------|
------------------------------------------------------------------|
------------------------------------------------------------------|
------------------------------------------------------------------|
------------------------------------------------------------------|
------------------------------------------------------------------|


2:25

12h-15-12h-15-12h-15-12h-15-12h-15-12-15-/17----------------------|
------------------------------------------------------------------|
------------------------------------------------------------------|
------------------------------------------------------------------|
------------------------------------------------------------------|
------------------------------------------------------------------|

CHORUS
------------------------------------------------------------------|
------------------------------------------------------------------|
-55--5--55---5--77--7--77-7--7-99--7--7-99--7--7-99--7--7-99------|
-33--3--33---3--55--5--55-5--5/77--5--5/77--5--5/77--5--5/77------|
------------------------------------------------------------------|
------------------------------------------------------------------|

on the 4th time
------------------------------------------------------------------|
------------------------------------------------------------------|
-55--5--55---5--77--7--77--4*--4----------------------------------|
-33--3--33---3--55--5--55--2*--2----------------------------------|
------------------------------------------------------------------|
------------------------------------------------------------------|

END

Lyrics
DEAD WEIGHT...FALLS!!!.

Friends like you, who needs enemies: DEAD WEIGHT FALLS SET YOU FREE!.
Friends like you, who needs enemies: DEAD WEIGHT FALLS SET YOU FREE!.

Stabbed in the back, time time again.
Life goes on, learn to embrace the pain.
Dealt with so much but it was never enough.
Now you're set free, my wounds healing up.

(chorus:)
TIME TO FACE...REALITY!. Dead weight falls and it sets you free.
CAN'T STAND THIS ATROCITY!. Dead weight falls and it sets you free.
LET'S END THIS...HYPOCRISY!. Dead weight falls and it sets you free.
There's nothing left, why can't you see the dead... weight... FALLS?

Severed ties... well, are we friends?
Friends don't lie, cheat or steal.
Is that what you are? Well, it's good for you;
I'll get a knife and I'll stab you TOO!.

TIME TO FACE...REALITY!. Dead weight falls and it sets you free.
CAN'T STAND THIS ATROCITY!. Dead weight falls and it sets you free.
LET'S END THIS...HYPOCRISY!. Dead weight falls and it sets you free.
With friends like you, well I now see...who...needs...ENEMIES!.

No apologies or consideration.
DEAD...WEIGHT! DEAD...WEIGHT!.
You never pitch in... but you're always taking.
DEAD...WEIGHT! DEAD...WEIGHT!.
I've been strung along, time to cut the string.
DEAD...WEIGHT! DEAD...WEIGHT!.
Dead weight falls and it sets you...FREE!.

(chorus)
Добавлено: 15.08.2013
Другие материалы по этой песне:
  • Аккорды и текст

Страница создана 15.08.2013
http://primanota.ru/unseen/dead-weight-chords.htm
Привет, Гость.
Предлагаем пройти революционный курс по гитаре.
Подарок от PrimaNota.Ru, забирай!