PrimaNota.ru - самый крупный в мире бесплатный архив песенных текстов, аккордов, табулатур и нот


Unsane - Body Bomb - бас-таба, видео

Регистрация Запомнить меня
Войти через:  Facebook Google Twitter Vk Yandex Mail.ru

Unsane - Body Bomb - бас-таба, видео

Печатать
Просмотров: 131
Авторы музыки: Pete Shore, Vinnie Signorelli, Chris Spencer

Whole song is pretty easy. The only thing is the timing can get weird, but nothing to strenuous.

The octave chords are right. Watched 3 different live videos for reference.

Use distortion the whole time. Tuning is Drop-D.

Riff 1
G|-----------------|-----------------|-----------------||7x
D|-----------------|-----------------|-----------------||
A|---------5-5-5-5-|-5-5-5-5-5-5-5-5-|---------5-5-5-5-||
D|-3---0---0-0-0-0-|-0-0-0-0-0-0-0-0-|-3---0---0-0-0-0-||

Riff 1a
G|-----------------|-----------------||
D|-----------------|-----------------||
A|---------5-5-5-5-|-5-5-5-5-5-5-5-5-||
D|-3---0---0-0-0-0-|-0-0-0-0-0-0-0-0-||

Riff 2
G|-----------------|-----------------|-----------------|-----------------||2x
D|-----------------|-----------------|-----------------|-----------------||
A|-----2---2-2-2-2-|-2-2-2-2-2-2-2-2-|-3-------5-5-5-5-|-5-5-5-5-5-5-5-5-||
D|-3---------------|-----------------|-----0---0-0-0-0-|-0-0-0-0-0-0-0-0-||

Riff 1b
G|-----------------|-----------------|-----------------||3x
D|-----------------|-----------------|-----------------||
A|---------5-5-5-5-|---------5-5-5-5-|-5-5-5-5-5-5-5-5-||
D|-3---0---0-0-0-0-|-3---0---0-0-0-0-|-0-0-0-0-0-0-0-0-||

Play Riff 2

Riff 2a
G|-----------------|-----------------|-----------------|-----------------||
D|-----------------|-----------------|-----------------|-----------------||
A|-----2---2-2-2-2-|-2-2-2-2-2-2-2-2-|-3---------------|-----------------||
D|-3---------------|-----------------|-----3---3-3-3-3-|-3-3-3-3-3-3-3-3-||

Play Riff 1 - 3x
Play Riff 1a
Play Riff 2

Riff 2b
G|-----------------|-----------------|-----|-----------------|----||
D|-----------------|-----------------|-----|-----------------|-8x-||
A|-----2---2-2-2-2-|-2-2-2-2-2-2-2-2-|-3---|-----------------|----||
D|-3---------------|-----------------|-----|-3---0-3-0-3-4---|----||

Play Riff 1 - 3x
Play Riff 1a
Play Riff 2a [last bar 16x]

End
G|-----||
D|-----||
A|-5---||
D|-0---||
Добавлено: 16.08.2015
Другие материалы по этой песне:
  • Аккорды и текст

Страница создана 16.08.2015
http://primanota.ru/unsane/body-bomb-chords.htm
Привет, Гость.
Предлагаем пройти революционный курс по гитаре.
Подарок от PrimaNota.Ru, забирай!