PrimaNota.ru - самый крупный в мире бесплатный архив песенных текстов, аккордов, табулатур и нот


Unmerciful - Cast To Flames - таба, видео

Регистрация Запомнить меня
Войти через:  Facebook Google Twitter Vk Yandex Mail.ru

Unmerciful - Cast To Flames - таба, видео

Печатать
Просмотров: 95
Уроки эстрадного вокала в Санкт-Петербурге
Song : CAST TO FLAMES
Band : UNMERCIFUL
ALBUM : UNMERCIFULLY BEATEN


::TABULATURE LEGEND::
 " - tremolo             h - hammer on           
 ~ - vibrato             \ - slide down
 p - pull off            / - slide down
 tr - trill              ^ - pinch harmonics     
 = - sustained note      b - bend string         
 p.m. - palm muting      t - tapping 

TUNING: dropped B (B, F#, B, e, g#, c#)

[Riff 1]
|---------------------------------|-------------------------------|-
|---------------------------------|-------------------------------|-
|---------------------------------|-------------------------------|-
|---------------------------------|-------------------------------|-
|-1-------2-------3-------2-------|-1-------2-------3-------2--3--|-
|---2-1-2---3-2-3---4-3-4---3-2-3-|---2-1-2---3-2-3---4-3-4-2--3--|-
| . . . . . . . . . . . . . . . . | . . . . . . . . . . . . .  .  |
|---------------------------------|-------------------------------|-
|---------------------------------|-------------------------------|-
|---------------------------------|-------------------------------|-
|---------------------------------|-------------------------------|-
|-1-------------------------------|-------------------------2--3--|-
|-1-------------------------------|-------------------------2--3--|-
  .                                                         .  .

-|---------------------------------|-----------------------------|
-|---------------------------------|-----------------------------|
-|---------------------------------|-----------------------------|
-|---------------------------------|-----------------------------|
-|-1-------2-------3-------2-------|-1-------2-------2--3--1--2--|
-|---2-1-2---3-2-3---4-3-4---3-2-3-|---2-1-2---3-2-3-2--3--1--2--|
 | . . . . . . . . . . . . . . . . | . . . . . . . . .  .  .  .  |
-|---------------------------------|-----------------------------|
-|---------------------------------|-----------------------------|
-|---------------------------------|-----------------------------|
-|---------------------------------|-----------------------------|
-|---------------------------------|-----------------2--3--1--2--|
-|---------------------------------|-----------------2--3--1--2--|
                                                     .  .  .  .
[RIFF 1 /both gutiars/ (x3)]

[Riff 2 (x4)]
|----------------------------------|---------------------------------|
|----------------------------------|---------------------------------|
|----------------------------------|---------------------------------|
|----------------------------------|---------------------------------|
|-1111--------22223333-------------|-1-------2-------3-------2-------|
|-----22221111--------444433332222-|---2-1-2---3-2-3---4-3-4---3-2-3-|
                                     . . . . . . . . . . . . . . . .

[Riff 3 (x4)]
|-------------------------------------------------------------------------|
|-------------------------------------------------------------------------|
|-------------------------------------------------------------------------|
|-^-------------------------------2h3p2-----3h4p3-----4h5p4-----3h4p3-----|
|-1~--2--1--2--3--4--3--2---------------5-4-------6-5-------7-6-------6-5-|
|-----2--1--2--3--4--3--2--[..x3]-----------------------------------------|
      .  .  .  .  .  .  .


[Outro]
|---------------------------------|-----------------------------|
|---------------------------------|-----------------------------|
|---------------------------------|-----------------------------|
|---------------------------------|-----------------------------|
|-1-------2-------3-------2-------|-1-------2-------5--8--4--7--|
|---2-1-2---3-2-3---4-3-4---3-2-3-|---2-1-2---3-2-3-5--8--4--7--|
| . . . . . . . . . . . . . . . . | . . . . . . . . .  .  .  .  |
|---------------------------------|-----------------------------|
|---------------------------------|-----------------------------|
|---------------------------------|-----------------------------|
|---------------------------------|-----------------------------|
|-1-------------------------------|-1---------------5--8--4--7--|
|-1-------------------------------|-1---------------5--8--4--7--|
  .

[Riff 4 (x6)]
|---------------------------------|----------------------------------|
|---------------------------------|----------------------------------|
|---------------------------------|----------------------------------|
|---------------------------------|----------------------------------|
|-1-------2-------3-------2-------|-1-------2-------5555888844447777-|
|---2-1-2---3-2-3---4-3-4---3-2-3-|---2-1-2---3-2-3------------------|
  . . . . . . . . . . . . . . . .   . . . . . . .

[Riff 5 (x2)]
|------------------[..x4]-|------------------[..x2]-|------------------[..x2]-|
|-------------------------|-------------------------|-------------------------|
|-------------------------|-------------------------|-------------------------|
|-------------------------|-------------------------|-------------------------|
|-8-5---------7-4---------|-8-5---------7-4---------|-8-5---------7-4---------|
|-----7-6-0-0-----6-5-0-0-|-----7-6-0-0-----6-5-0-0-|-----7-6-0-0-----6-5-0-0-|
| . . . . . . . . . . . . | . . . . . . . . . . . . | . . . . . . . . . . . . |
|------------------[..x4]-|------------------[..x2]-|------------------[..x2]-|
|-------------------------|-------------------------|-------------------------|
|-------------------------|-------------------------|-------------------------|
|-------------------------|-------------------------|-8-5---------7-4---------|
|-8-5---------7-4---------|-118---------107---------|-------------------------|
|-----7-6-0-0-----6-5-0-0-|-----109-0-0-----9-8-0-0-|-----7-6-0-0-----6-5-0-0-|
  . . . . . . . . . . . .   . . . . . . . . . . . .   . . . . . . . . . . . .

[RIFF 1 (x4)] [RIFF 2 (x4)] [RIFF 3 (x4)]

END OF SONG
Добавлено: 31.07.2013
Другие материалы по этой песне:

Страница создана 31.07.2013
http://primanota.ru/unmerciful/cast-to-flames-chords.htm
Привет, Гость.
Предлагаем пройти революционный курс по гитаре.
Подарок от PrimaNota.Ru, забирай!