PrimaNota.ru - самый крупный в мире бесплатный архив песенных текстов, аккордов, табулатур и нот


Unloco - Texas - аккорды и текст, таба, видео

Регистрация Запомнить меня
Войти через:  Facebook Google Twitter Vk Yandex Mail.ru

Unloco - Texas - аккорды и текст, таба, видео

Печатать
Просмотров: 234
Texas
Unloco
		   Notation Key:
^ - Upstroke Pick
v - Downstroke Pick
x - Muted String
p - Pull off
/ - Slide Up
\ - Slide Down
~ - Let ring


Intro (each number of chords isn't exact.  Just listen to the album):

c#|-----------0----------------0----------------3-------------------------||
g#|---0--0-0--0--0-0---0--0-0--0--0-0---3--3-3--3--3-3--------------------||
E |---9--9-9--9--9-9---9--9-9--9--9-9---5--5-5--5--5-5-----------7--7-7---||
B |---9--9-9--9--9-9---9--9-9--9--9-9---5--5-5--5--5-3---5--5-5--7--7-7---||
F#|---7--7-7--7--7-7---0--0-0--0--0-0---3--3-3--3--3-3---5--5-5--5--5-5---||
C#|------------------------------------------------------3--3-3--x--x-x---|| x 2

Verse 1:

c#|-----------0----------------0----------------3-------------------------||
g#|---0--0-0--0--0-0---0--0-0--0--0-0---3--3-3--3--3-3--------------------||
E |---9--9-9--9--9-9---9--9-9--9--9-9---5--5-5--5--5-5-----------7--7-7---||
B |---9--9-9--9--9-9---9--9-9--9--9-9---5--5-5--5--5-3---5--5-5--7--7-7---||
F#|---7--7-7--7--7-7---0--0-0--0--0-0---3--3-3--3--3-3---5--5-5--5--5-5---||
C#|------------------------------------------------------3--3-3--x--x-x---|| x 3

Last time play:

c#|-----------0----------------0----------------3----------------5--5-5/--||
g#|---0--0-0--0--0-0---0--0-0--0--0-0---3--3-3--3--3-3-----------5--5-5/--||
E |---9--9-9--9--9-9---9--9-9--9--9-9---5--5-5--5--5-5-----------7--7-7/--||
B |---9--9-9--9--9-9---9--9-9--9--9-9---5--5-5--5--5-3---5--5-5--7--7-7/--||
F#|---7--7-7--7--7-7---0--0-0--0--0-0---3--3-3--3--3-3---5--5-5--5--5-5/--||
C#|------------------------------------------------------3--3-3--5--5-5/--||

Chorus 1:

c#|---0--0-0--0--0-0---3--3-3--3--3-3---3--3-3--3--3-3---5--5-5--5--5-5---||
g#|---8--8-8--8--8-8---3--3-3--3--3-3---3--3-3--3--3-3---5--5-5--5--5-5---||
E |---9--9-9--9--9-9---5--5-5--5--5-5---4--4-4--4--4-4---7--7-7--7--7-7---||
B |---9--9-9--9--9-9---5--5-5--5--5-5---5--5-5--5--5-3---7--5-5--7--7-7---||
F#|---7--7-7--7--7-7---3--3-3--3--3-3---5--5-5--5--5-5---5--5-5--5--5-5---||
C#|-------------------------------------3--3-3--3--3-3---5--3-3--5--5-5---|| x 4

Lead riff for Chorus (not at all exact but it should give you a starting point):

c#|-----------------------------------------------------------------------||
g#|---7--7-7--7~-------3--3-3--3~-------0--0-0--0~----7--7-7-7p6p4-4-6h7--||
E |-----------------------------------------------------------------------||
B |-----------------------------------------------------------------------||
F#|-----------------------------------------------------------------------||
C#|-----------------------------------------------------------------------|| x 4

Verse 2 (Same as first):

Chorus 2 (Same as first, both guitars):

Breakdown/Outro:

c#|----------------------------3------------------------------------------||
g#|----------------------------3---------------------------------5--------||
E |---5--5-5--5--5-5---5--5-5--5--5-5---4--4-4--4--4-4---7-7-7-7-7---7----||
B |---5--5-5--5--5-5---5--5-5--5--5-5---5--5-5--5--5-5---7-7-7-7---7-7----||
F#|---3--3-3--3--3-3---3--3-3--3--3-3---5--5-5--5--5-5---5-5-5-5-----5----||
C#|-------------------------------------3--3-3--3--3-3--------------------||

c#|----------------------------3------------------------------------------||
g#|----------------------------3---------------------------------5--------||
E |---5--5-5--5--5-5---5--5-5--5--5-5---4--4-4--4--4-4---7-7-7-7---7------||
B |---5--5-5--5--5-5---5--5-5--5--5-5---5--5-5--5--5-5---7-7-7-7-----7----||
F#|---3--3-3--3--3-3---3--3-3--3--3-3---5--5-5--5--5-5---5-5-5-5----------||
C#|-------------------------------------3--3-3--3--3-3--------------------||

c#|----------------------------3------------------------------------------||
g#|----------------------------3------------------------------------------||
E |---5--5-5--5--5-5---5--5-5--5--5-5---4--4-4--4--4-4---7-7-7-7-7-7-7----||
B |---5--5-5--5--5-5---5--5-5--5--5-5---5--5-5--5--5-5---7-7-7-7-7-7-7----||
F#|---3--3-3--3--3-3---3--3-3--3--3-3---5--5-5--5--5-5---5-5-5-5-5-5-5----||
C#|-------------------------------------3--3-3--3--3-3--------------------||

c#|-----------3----------------3----------------3---------0~--------------||
g#|-----------3----------------3----------------3---------0~--------------||
E |---5--5-5--5--5-5---5--5-5--5--5-5---5--5-5--5--5-5----9~--------------||
B |---5--5-5--5--5-5---5--5-5--5--5-5---5--5-5--5--5-5----9~--------------||
F#|---3--3-3--3--3-3---3--3-3--3--3-3---3--3-3--3--3-3----7~--------------||
C#|-----------------------------------------------------------------------||

-Fin-     
Добавлено: 30.07.2013
Другие материалы по этой песне:

Страница создана 22.02.2012
http://primanota.ru/unloco/texas-chords.htm
Привет, Гость.
Предлагаем пройти революционный курс по гитаре.
Подарок от PrimaNota.Ru, забирай!