PrimaNota.ru - самый крупный в мире бесплатный архив песенных текстов, аккордов, табулатур и нот


Unleaded - Revenge - аккорды и текст, видео

Регистрация Запомнить меня
Войти через:  Facebook Google Twitter Vk Yandex Mail.ru

Unleaded - Revenge - аккорды и текст, видео

Печатать
Просмотров: 69
Revenge
Unleaded
Band   - The Unleaded
Site   - www.TheUnleaded.com
Song   - Revenge
Album  - Unleaded Demo
Tab By - Mike
Tuning - D A D G B E


Intro Riff (chords: B, A, C)
----------------------------

E --------------------------
B --------------------------
G --------------------------
D ---------4---------2-5----
A -2-2-2-2---2-2-2-2--------
D --------------------------


Verse 1
-------

Hate - is what you taught me
Revenge - is what I learnt
Pain ^Ö is what you showed me
Retreat ^Ö is all I knew

E --------------------------
B --------------------------
G --------------------------
D ----------4-4-4-4-4-4-4-4-
A --------------------------
D --------------------------

But I don^Òt forget
And I don^Òt forgive
I told you to step back
There^Òs nothing to see (you don^Òt matter)


Chorus (Chords: B, C, A, D)
---------------------------

B        C
Hear me, Fear me
A              D
Cause tonight, I^Òm gonna take your life
B           C
I^Òll laugh, while you scream and cry
A                 D
As I torture you, till you die
I'll get my Revegne (Back to riff)


Verse 2
-------

Free - myself from you
Hide - I will no longer
Reclaim ^Ö my blood, make you
Regret ^Ö you were ever born

E --------------------------
B --------------------------
G --------------------------
D ----------4-4-4-4-4-4-4-4-
A --------------------------
D --------------------------

But I don^Òt forget
And I don^Òt forgive
I told you to step back
There^Òs nothing to see (you don^Òt matter)


Bridge (Chords: D,E,D,F,E,D,E)
------------------------------

I'll get you...

D E E E E D D D D F F F F E D E
Back, for all of those years
Back, I^Òve got no more fear
Back, cause now I^Òm in control
Back, I^Òm sending you home


Outro (Play like the intro but heavier)
---------------------------------------

comments: Great tune!

they have the mp3 for free download
on their site: www.TheUnleaded.com

=========================================

_________________________________________________________________
     
Добавлено: 05.11.2013
Другие материалы по этой песне:
  • Аккорды и текст

Страница создана 05.11.2013
http://primanota.ru/unleaded/revenge-chords.htm
Привет, Гость.
Предлагаем пройти революционный курс по гитаре.
Подарок от PrimaNota.Ru, забирай!