PrimaNota.ru - самый крупный в мире бесплатный архив песенных текстов, аккордов, табулатур и нот


Unknown - Tears In Heaven - таба, видео

Регистрация Запомнить меня
Войти через:  Facebook Google Twitter Vk Yandex Mail.ru

Unknown - Tears In Heaven - таба, видео

Печатать
Просмотров: 72
e----------|------------------------------------------------|
b----------|---2h3p2------5----5--2~~----2-----2----2----3--|
g----------|---------2----4----4--2~~----2-----2----2----2--|
d----------|-2----------------------------------------------|
a-------0~~|------------------------------------------------|
e---0h2----|-----------------4----2~~--2----2--0--0---0---2-|

            E7
e-----------------------------------------------|
b--3---3----3---2-------2----2----2-------------|
g--2---2----1---2-------2----2----2-------------|
d-----------------------------------------------|
a--------------------0-----0----0----------0~---|
e----2----2----------------------------0h2------|



    Em7                   E       A                      D
e----------|------------------------------------------------|
b----------|---2h3p2------5----5--2~~----2-----2----2----3--|
g----------|---------2----4----4--2~~----2-----2----2----2--|
d----------|-2----------------------------------------------|
a-------0~~|------------------------------------------------|
e---0h2----|-----------------4----2~~--2----2--0--0---0---2-|



e---------------------------------------|
b--3---3----2----3--0-------0----2---3--|
g--2---2----2----2--2-------1----2---4--|
d---------------------------------------|
a---------------------------------------|
e----2---------2----------0----0---0----|




   F#                       Db
e--------2-----------2-------------1----------1---------0-----|
b--2-----------2--------------2----------2----------2---------|
g--2-----------2--------------1----------1----------0---------|
d-------------------------------------------------------------|
a-------------------------------------------------------------|
e-----2------2-----2----2--------1-----1----1-----0----0------|


e-----------0----------------------------------------------|
b------2---------------2---------2----2----2----------3----|
g------0----------3--3-3----3----3----3----3--------2------|
d----------------------------------------0--------0--------|
a----------------------------------------------------------|
e---0-----0----0--2-------2----2----2----------------------|

e-------------------------------0-------|
b--------3---------------3--3~~---3-----|
g------2---2~~~----------2--2~~---------|
d----0----------------------------------|
a--0------------------------------------|
e---------------------------------------|
          Bridge :
e----------------------------------------------------------|
b--------------1------------------1----1~~----3----4--4----|
g--------------0------------------0----2~~----2----3--3----|
d------------2----------------2--------2~~--0----0---------|
a----0h2h3~~--------------3-2------------------------------|
e----------------------------------------------------------|

e----------------------------------|
b---0-----0----2----3~-------------|
g---0-----1----2----2~-------------|
d------------0---0-----------------|
a----------------------------------|
e------0---------------------------|

Solo

e-------------------------|-----------------------------|
b-----0-----2-----3-------|--14--------17-17-14~~~~~----|
g-----1-----2-----4-------|-----14~~--------------------|
d-------------------------|-----------------------------|
a-------------------------|-----------------------------|
e--0------0----0------0~~~|-----------------------------|
Добавлено: 25.06.2013
Другие материалы по этой песне:
  • Аккорды и текст

Страница создана 25.06.2013
http://primanota.ru/unknown/tears-in-heaven-chords.htm
Привет, Гость.
Предлагаем пройти революционный курс по гитаре.
Подарок от PrimaNota.Ru, забирай!