PrimaNota.ru - самый крупный в мире бесплатный архив песенных текстов, аккордов, табулатур и нот


Unknown - Im Just A Comet - таба, видео

Регистрация Запомнить меня
Войти через:  Facebook Google Twitter Vk Yandex Mail.ru

Unknown - Im Just A Comet - таба, видео

Печатать
Просмотров: 107
Everything is standard tuning(EADGBE).

x - muted


Intro (play this 2x)
     x x   x x   x x   x x 
E|---------------------------------| 
B|---------------------------------| 
G|---------------------------------| 
D|-2-----3-----2-----3-----2-3-2---| 
A|-3-3-3-3-3-3-3-3-3-3-3-3-3-3-3---| 
E|---------------------------------|


Intro 2 (also 2x)
     x x   x x   x x   x x 
E|---------------------------------| 
B|---------------------------------| 
G|---------------------------------| 
D|-2-----3-----2-----3-----2-3-2---| 
A|-3-3-3-3-3-3-3-3-3-3-3-3-3-3-3---| 
E|---------------------------------|

     x x   x x   x x   x x 
E|---------------------------------| 
B|---------------------------------| 
G|---------------------------------| 
D|-2-----3-----2-----3-----2-3-2---| 
A|-0-0-0-0-0-0-0-0-0-0-0-0-0-0-0---| 
E|---------------------------------|

     x x     x   x x     x   x x
E|---------------------------------| 
B|---------------------------------| 
G|---------------------------------| 
D|---------------------------------| 
A|-5-----5-----5-----5-----5-----5-| 
E|-3-3-3-3---3-3-3-3-3---3-3-3-3-3-|

     x |- gradually un-mute -| 
E|---------------------------------| 
B|---------------------------------| 
G|---------------------------------| 
D|---------------------------------| 
A|-3-3-3-3-3-3-3-3-3-3-3-3-3-3-3---| 
E|-3-3-3-3-3-3-3-3-3-3-3-3-3-3-3---|


Bridge

E|---------------------------------|
B|---------------------------------|
G|---------------------------------|
D|---------------------------------|
A|-7---7-7---7-7---5---5-5---5-5---|
E|-5---5-5---5-5---3---3-3---3-3---|

E|----------------------------|
B|----------------------------|
G|----------------------------|
D|----------------------------|
A|-3----3----3----3----3---5--|
E|-1----0----1----0----1---3--|

E|---------------------------------|
B|---------------------------------|
G|---------------------------------|
D|---------------------------------|
A|-7---7-7---7-7---5---5-5---5-5---|
E|-5---5-5---5-5---3---3-3---3-3---|

E|-------------------------| 
B|-------------------------| 
G|-------------------------| 
D|-------------------------| 
A|-3---3---3---3-3-3-3-3---| 
E|-1---1---1---1-1-1-1-1---|


Chorus 1 (2x)

E|---------------------------------|
B|---------------------------------|
G|---------------------------------|
D|-5---5-5---5-5-------------------|
A|-3---3-3---3-3---5---5-5---5-5---|
E|-----------------3---3-3---3-3---|

E|---------------------------------|
B|---------------------------------|
G|---------------------------------|
D|---------------------------------|
A|-3---3-3---3-3---3-3---3-3---5---|
E|-1---1-0---0-1---1-0---0-1---3---|

E|---------------------------------|
B|---------------------------------|
G|---------------------------------|
D|---------------------------------|
A|-7---7-7---7-7---5---5-5---5-5---|
E|-5---5-5---5-5---3---3-3---3-3---|

E|---------------------------------| 
B|---------------------------------| 
G|---------------------------------| 
D|---------------------------------| 
A|-3---3-3---3-3---3-3-3-3-3-3-3-3-| 
E|-1---1-1---1-1---1-1-1-1-1-1-1-1-|


Chorus 2 (2x)

E|---------------------------------|
B|---------------------------------|
G|---------------------------------|
D|-8---8-8---8-8-------------------|
A|-6---6-6---6-6---8---8-8---8-8---|
E|-----------------6---6-6---6-6---|

E|---------------------------------|
B|---------------------------------|
G|---------------------------------|
D|---------------------------------|
A|-6---6-6---6-6---6-6---6-6---8---|
E|-4---4-3---3-4---4-3---3-4---6---|

E|---------------------------------|
B|---------------------------------|
G|---------------------------------|
D|---------------------------------|
A|-10--1010--1010--8---8-8---8-8---|
E|-8---8-8---8-8---6---6-6---6-6---|

E|---------------------------------| 
B|---------------------------------| 
G|---------------------------------| 
D|---------------------------------| 
A|-6---6-6---6-6---6-6-6-6-6-6-6-6-| 
E|-4---4-4---4-4---4-4-4-4-4-4-4-4-|


Outro

     x x   x x   x x   x x 
E|---------------------------------| 
B|---------------------------------| 
G|---------------------------------| 
D|-5-----6-----5-----6-----5-6-5---| 
A|-6-6-6-6-6-6-6-6-6-6-6-6-6-6-6---| 
E|---------------------------------| (play this 3x)

E|-------| 
B|-------| 
G|-------| 
D|-5-----| 
A|-6-----| 
E|-------|
Добавлено: 21.10.2015
Другие материалы по этой песне:
  • Аккорды и текст

Страница создана 21.10.2015
http://primanota.ru/unknown/im-just-a-comet-chords.htm
Привет, Гость.
Предлагаем пройти революционный курс по гитаре.
Подарок от PrimaNota.Ru, забирай!