PrimaNota.ru - самый крупный в мире бесплатный архив песенных текстов, аккордов, табулатур и нот


Unknown - Angels We Have Heard On High - таба, видео

Регистрация Запомнить меня
Войти через:  Facebook Google Twitter Vk Yandex Mail.ru

Unknown - Angels We Have Heard On High - таба, видео

Печатать
Просмотров: 89
e|------------------|---------------|----------------------|-----------------|
B|-0---0-----0----3-|-3-----1--0----|-0-----------0-----3--|-0---------------|
G|------------------|---------------|---------2------------|------2---0------|
D|------------------|---------------|----------------------|-----------------|
A|------------------|---------------|----------------------|-----------------|
E|------------------|---------------|----------------------|-----------------|

   An - gels we have  heard on high,  Sweet - ly sing - ing  o'er the plains.

e|---------------------|-------------|--------------------|------------------|
B|-0---0---0-------3---|-3--1----0---|-0---------0---3----|-0----------------|
G|---------------------|-------------|-------2------------|-------2---0------|
D|---------------------|-------------|--------------------|------------------|
A|---------------------|-------------|--------------------|------------------|
E|---------------------|-------------|--------------------|------------------|

   And the mount - ains  in re - ply,  Ech - o - ing their  joy - ous strains.

e|-----0-------|-----------|-----------|----------|------------------|--------|
B|-3-----3-1-0-|-1-3-1-0---|-0-1-0-----|----------|---------0-----1--|-0------|
G|-------------|---------2-|-------2-0-|-2--------|-0--2-------------|------2-|
D|-------------|-----------|-----------|---0----0-|------------------|--------|
A|-------------|-----------|-----------|----------|------------------|--------|
E|-------------|-----------|-----------|----------|------------------|--------|

   Glo - - - -   - - - - -   - - - - -   - ri - a   in ex - cel - sis  De - o

e|-----0-------|-----------|-----------|----------|-----------------|-------|---|
B|-3-----3-1-0-|-1-3-1-0---|-0-1-0-----|----------|---------0-----1-|-0-----|---|
G|-------------|---------2-|-------2-0-|-2--------|-0--2------------|-----2-|-0-|
D|-------------|-----------|-----------|---0----0-|-----------------|-------|---|
A|-------------|-----------|-----------|----------|-----------------|-------|---|
E|-------------|-----------|-----------|----------|-----------------|-------|---|

   Glo - - - -   - - - - -   - - - - -   - ri - a   in ex - cel - sis  De -   o
Добавлено: 12.10.2013
Другие материалы по этой песне:
  • Аккорды и текст

Страница создана 12.10.2013
http://primanota.ru/unknown/angels-we-have-heard-on-high-chords.htm
Привет, Гость.
Предлагаем пройти революционный курс по гитаре.
Подарок от PrimaNota.Ru, забирай!