PrimaNota.ru - самый крупный в мире бесплатный архив песенных текстов, аккордов, табулатур и нот


Unknown Mortal Orchestra - The World Is Crowded - бас-таба, видео

Регистрация Запомнить меня
Войти через:  Facebook Google Twitter Vk Yandex Mail.ru

Unknown Mortal Orchestra - The World Is Crowded - бас-таба, видео

Печатать
Просмотров: 89
Уроки эстрадного вокала в Санкт-Петербурге
-------------------------------------------------------------------------------
                            The World Is Crowded - Unknown Mortal Orchestra
Tabbed by: tim_impala
E-mail: 

Tuning: Standard

Use an envelope filter for that nasty funk sound

Intro
G|-------------------------------------|-8---8---8-8-6---6---6---------6------|
D|--9---9---9-9-7---7---7-7------6-----|-----------------------7-9---9----7---|
A|--------------------------9---9----7-|--------------------------------------|
E|-------------------------------------|--------------------------------------|

G|-------------------------------------|-9-----9-----7-----7---------------------|
D|--9---9---9-9-7---7---7-7------6-----|----------------------9------------------|
A|--------------------------9---9----7-|-----------------------------------------|
E|-------------------------------------|-------------------------7-7---7-7---7-7-|

G|-------------------------------------------|
D|--9---9---9-9-7-----7----------------------|
A|-----------------------9---9-9---9-9---9-9-|
E|-------------------------------------------|

Chorus
Oooh, the world is crowded...
G|------------------------------------------------------------------------------------------------|
D|-----------------------------------------------8---8-8---8-8---8-8------------------------------|
A|-9---9-9---9-9---9-9---9-9---9-9---9--7--9-7------------------------11-11---11-11---11--7--9-7--|   3x
E|-------------------------------------9-9----9------------------------------------------9-9----9-|  

4th time end with:

G|----------------------------------------------------------------------------------------|
D|----------------------------------------------------------------------------------------|
A|--11-11---11-11---11-11---11-11---10-10---10-10---10-10---10-10---9-9---9-9---9-9---9-9-|
E|----------------------------------------------------------------------------------------|

Verse:

Repeat Intro part

Chorus

Verse

Chorus

Outro:

Repeat Chorus part


| /  slide up
| \  slide down
| h  hammer-on
| p  pull-off
| ~  vibrato
| +  harmonic
| x  Mute note
===============================================================================
Добавлено: 23.10.2015
Другие материалы по этой песне:
  • Аккорды и текст

Страница создана 23.10.2015
http://primanota.ru/unknown-mortal-orchestra/world-is-crowded-chords.htm
Привет, Гость.
Предлагаем пройти революционный курс по гитаре.
Подарок от PrimaNota.Ru, забирай!