PrimaNota.ru - самый крупный в мире бесплатный архив песенных текстов, аккордов, табулатур и нот


Unknown Mortal Orchestra - Thought Ballune - таба, видео

Регистрация Запомнить меня
Войти через:  Facebook Google Twitter Vk Yandex Mail.ru

Unknown Mortal Orchestra - Thought Ballune - таба, видео

Печатать
Просмотров: 101
Tune down one half step

Chorus/Intro

e|---12---10---8---7---5---3---5-7--|
B|---12---10---8---7---5---3---5-7--|
G|---12---11---9---7---5---4---5-7--|
D|-0----0----0---0---0---0---0------|
A|----------------------------------|
E|----------------------------------| x2

then
e|---15---14---12--10--8---7---5-7----8--10-10--|
B|---12---10---8---7---5---3---5-7----8--10-10--|
G|---12---11---9---7---5---4---5-7----9--11-11--|
D|-0----0----0---0---0---0---0-----0--0--0--0---|
A|----------------------------------------------|
E|----------------------------------------------|

 
Verse( first time in, slide in from the 10th fret on the a string)
e|-------0-----0-----0-----0-----2-----2-------------------------|
B|-------1-----1-----1-----1-----3-----3-----3-----3-----5-----5-|
G|-------0-----0-----0-----0-----2-----2-----3-----3-----5-----5-|
D|-------2-----2-----2-----2-0-0-0-0-0-0-----3-----3-----5-----5-|
A|---0-0-0-0-0-0-0-0-0-0-0-0-------------1-1-1-1-1-1-3-3-3-3-3-3-|
E|---------------------------------------------------------------|

e|-----2-----2--|
B|-----3-----3--|
G|-----2-----2--|
D|-0-0-0-0-0-0--|
A|--------------|
E|--------------| x2 (but play 0-2 on the D sting before starting)

Then play the intro riff for the chorus. 

Just go nuts on the solo as I can't tab it out right now :P

Добавлено: 20.06.2013
Другие материалы по этой песне:
  • Аккорды и текст

Страница создана 20.06.2013
http://primanota.ru/unknown-mortal-orchestra/thought-ballune-chords.htm
Привет, Гость.
Предлагаем пройти революционный курс по гитаре.
Подарок от PrimaNota.Ru, забирай!