PrimaNota.ru - самый крупный в мире бесплатный архив песенных текстов, аккордов, табулатур и нот


Unknown Mortal Orchestra - Swing Lo Magellan - таба, видео

Регистрация Запомнить меня
Войти через:  Facebook Google Twitter Vk Yandex Mail.ru

Unknown Mortal Orchestra - Swing Lo Magellan - таба, видео

Печатать
Просмотров: 98
-------------------------------------------------------------------------------
                      SWING LO MAGELLAN - Unknown Mortal Orchestra
-------------------------------------------------------------------------------

Tabbed by: Justin Winokur (https://www.youtube.com/watch?v=VqhUw1bn_1g)

Tuning: Down 1 Step

e|--------------2-------|--------------2-------|--------------2-------|--2-------------|
B|-----------------3----|-----------------3----|-----------------3----|-----3----------|
G|-------7-----------4--|-------7-----------4--|-------7-----------4--|-------------7--|
D|-------7--------------|-------7--------------|-------7--------------|-------------7--|
A|--3/5-----------------|--3/5-----------------|--3/5-----------------|--------3/5-----|
E|----------2-3---------|----------2-3---------|----------2-3---------|----------------|

************************************

| /   slide up
| \   slide down
| h   hammer-on
| p   pull-off
| ~   vibrato
| +   harmonic
| x   Mute note
| b   Bend
| pb  Pre-bend
| br  Bend release
| pbr Pre-bend release
| brb Bend release bend

************************************
Добавлено: 17.06.2015
Другие материалы по этой песне:
  • Аккорды и текст

Страница создана 17.06.2015
http://primanota.ru/unknown-mortal-orchestra/swing-lo-magellan-chords.htm
Привет, Гость.
Предлагаем пройти революционный курс по гитаре.
Подарок от PrimaNota.Ru, забирай!