PrimaNota.ru - самый крупный в мире бесплатный архив песенных текстов, аккордов, табулатур и нот


Unknown Mortal Orchestra - So Good At Being In Trouble - аккорды и текст, таба, бас-таба, видео

Регистрация Запомнить меня
Войти через:  Facebook Google Twitter Vk Yandex Mail.ru

Unknown Mortal Orchestra - So Good At Being In Trouble - аккорды и текст, таба, бас-таба, видео

Печатать
Просмотров: 262
So Good At Being In Trouble
Unknown Mortal Orchestra
-----------------------------------------------------------------------------
SO GOOD AT BEING IN TROUBLE - Unknown Mortal Orchestra
-----------------------------------------------------------------------------
Tabbed by: Luca
Tuning: Standard

(rD):  
e|-----------------2------------|
B|-----------------3------------|
G|-----------------2------------|
D|-2h4-2-----------0------------|
A|-------2h4-2------------------|
E|-------------5----------------|

(rD)                               Bm             A
  Now that you're gone it's been a long, lonely time
        G     A    Bm    C#m D
It's a long, sad, lonely time
(rD)                     Bm                A
  Rolling along I'm in a strange state of mind
        G       A   Bm   C#m  D
It's a strange old state of mind

e|-----------------3------------|
B|-----------------5------------|
G|-----------------5------------|
D|-2h4-2-----------5------------|
A|-------2h4-2-----3------------|
E|-------------5---3------------|

C                          G
  Memories they mess with my mind
       F       E
Who am I to deny

She was
C
So good at being in trouble
Am
So good at being in trouble
C
So good at being in trouble
Am
So good at being in trouble
Добавлено: 08.07.2014
Другие материалы по этой песне:
  • Аккорды и текст

Страница создана 11.06.2013
http://primanota.ru/unknown-mortal-orchestra/so-good-at-being-in-trouble-chords.htm
Привет, Гость.
Предлагаем пройти революционный курс по гитаре.
Подарок от PrimaNota.Ru, забирай!