PrimaNota.ru - самый крупный в мире бесплатный архив песенных текстов, аккордов, табулатур и нот


Unknown Mortal Orchestra - No Need For A Leader - бас-таба, видео

Регистрация Запомнить меня
Войти через:  Facebook Google Twitter Vk Yandex Mail.ru

Unknown Mortal Orchestra - No Need For A Leader - бас-таба, видео

Печатать
Просмотров: 39
-------------------------------------------------------------------------------
                             No Need For a Leader -UMO
-------------------------------------------------------------------------------
Tabbed by: Darkondrago666
E-mail: Darkondrago@gmail.com

Tuning: Standard (E,A,D,G)

No bass until 0:12

0:12-0:24
G|----------8--6-8-6----------------------------------------|
D|------8-8---------8---------------------------------------|  (x4)
A|--6-6-----------------------------------------------------|
E|----------------------------------------------------------|

0:24-0:35
G|----------------------------------------------------------|
D|----------------------------------------------------------|  (x4) 
A|--6-6-4-6--6-6--------------------------------------------|
E|----------------------------------------------------------|

0:35-0:38
G|---------------11-10---11-10------------------------------|
D|---6----6-----------11------11----------------------------|  (x1) 
A|--4--4-4----------------------11--------------------------|
E|----------------------------------------------------------|

0:38-0:49
G|----------------------------------------------------------|
D|----------------------------------------------------------|  (x4) 
A|--6-6-4-6--6-6--------------------------------------------|
E|----------------------------------------------------------|


0:49-0:53
G|---------------11-10---11-10------------------------------|
D|---6----6-----------11------11----------------------------|  (x1) 
A|--4--4-4----------------------11--------------------------|
E|----------------------------------------------------------|

0:53-1:16
G|----8-6--------6-4----------------------------------------|
D|---8---8-6----6---6-4-------------------------------------|  (x2) 
A|--6-------8--4-------6--------------------------2---------|
E|------------------------4-4-4--4-4--2-2-2-2--4-4--4-2-----|

1:16-1:30
G|----------------------------------------------------------|
D|----------------------------------------------------------|  (x1) 
A|--------------------------------4-------------------------|
E|-6-6-6--4-4-4--2-2-2---6-4-2-4-2--------------------------|

1:30-1:42
G|----------------------------------------------------------|
D|----------------------------------------------------------|  (x4) 
A|--6-6-4-6--6-6--------------------------------------------|
E|----------------------------------------------------------|


1:42-1:45
G|---------------11-10---11-10------------------------------|
D|---6----6-----------11------11----------------------------|  (x1) 
A|--4--4-4----------------------11--------------------------|
E|----------------------------------------------------------|

1:45-1:57
G|----------------------------------------------------------|
D|----------------------------------------------------------|  (x4) 
A|--6-6-4-6--6-6--------------------------------------------|
E|----------------------------------------------------------|

1:57-2:00
G|---------------11-10---11-10------------------------------|
D|---6----6-----------11------11----------------------------|  (x1) 
A|--4--4-4----------------------11--------------------------|
E|----------------------------------------------------------|

2:00-2:23
G|----8-6--------6-4----------------------------------------|
D|---8---8-6----6---6-4-------------------------------------|  (x2) 
A|--6-------8--4-------6--------------------------2---------|
E|------------------------4-4-4--4-4--2-2-2-2--4-4--4-2-----|

2:23-2:37
G|----------------------------------------------------------|
D|----------------------------------------------------------|  (x1) 
A|--------------------------------4-------------------------|
E|-6-6-6--4-4-4--2-2-2---6-4-2-4-2--------------------------|

2:37-3:36
G|---8-6----------------------------------------------------|
D|------6-4-4-6-4-------------------------------------------|  (x20) 
A|--6------6-----6-4----------------------------------------|
E|----------------------------------------------------------|

3:36-3:59
G|----8-6--------6-4----------------------------------------|
D|---8---8-6----6---6-4-------------------------------------|  (x2) 
A|--6-------8--4-------6--------------------------2---------|
E|------------------------4-4-4--4-4--2-2-2-2--4-4--4-2-----|

3:59-4:14
G|----------------------------------------------------------|
D|----------------------------------------------------------|  (x1) 
A|--------------------------------4-------------------------|
E|-6-6-6--4-4-4--2-2-2---6-4-2-4-2--------------------------|

No bass until...

4:25-4:37
G|----------------------------------------------------------|
D|----------------------------------------------------------|  (x4) 
A|--6-6-4-6--6-6--------------------------------------------|
E|----------------------------------------------------------|

4:37-4:40
G|---------------11-10---11-10------------------------------|
D|---6----6-----------11------11----------------------------|  (x1) 
A|--4--4-4----------------------11--------------------------|
E|----------------------------------------------------------|

4:40-4:51
G|----------------------------------------------------------|
D|----------------------------------------------------------|  (x4) 
A|--6-6-4-6--6-6--------------------------------------------|
E|----------------------------------------------------------|

4:51-4:55
G|---------------11-10---11-10------------------------------|
D|---6----6-----------11------11----------------------------|  (x1) 
A|--4--4-4----------------------11--------------------------|
E|----------------------------------------------------------|

4:55-5:06
G|----------------------------------------------------------|
D|----------------------------------------------------------|  (x4) 
A|--6-6-4-6--6-6--------------------------------------------|
E|----------------------------------------------------------|

5:06-5:09
G|---------------11-10---11-10------------------------------|
D|---6----6-----------11------11----------------------------|  (x1) 
A|--4--4-4----------------------11--------------------------|
E|----------------------------------------------------------|

5:09-5:21
G|----------------------------------------------------------|
D|----------------------------------------------------------|  (x4) 
A|--6-6-4-6--6-6--------------------------------------------|
E|----------------------------------------------------------|

5:21-5:24
G|---------------11-10---11-10------------------------------|
D|---6----6-----------11------11----------------------------|  (x1) 
A|--4--4-4----------------------11--------------------------|
E|----------------------------------------------------------|

5:24-5:35
G|----------------------------------------------------------|
D|----------------------------------------------------------|  (x4) 
A|--6-6-4-6--6-6--------------------------------------------|
E|----------------------------------------------------------|

5:35-5:38
G|---------------11-10---11-10------------------------------|
D|---6----6-----------11------11----------------------------|  (x1) 
A|--4--4-4----------------------11--------------------------|
E|----------------------------------------------------------|

5:38-end
G|----------------------------------------------------------|
D|----------------------------------------------------------|  (x4) 
A|--6-6-4-6--6-6--------------------------------------------|
E|----------------------------------------------------------|


| /  slide up
| \  slide down
| h  hammer-on
| p  pull-off
| ~  vibrato
| +  harmonic
| x  Mute note
===============================================================================
Добавлено: 05.05.2016
Вам также может быть интересно:
Другие материалы по этой песне:

Страница создана 23.10.2015
http://primanota.ru/unknown-mortal-orchestra/no-need-for-a-leader-chords.htm
Привет, Гость.
Предлагаем пройти революционный курс по гитаре.
Подарок от PrimaNota.Ru, забирай!