PrimaNota.ru - самый крупный в мире бесплатный архив песенных текстов, аккордов, табулатур и нот


Unknown Mortal Orchestra - Ill Come Back 4 U - таба, видео

Регистрация Запомнить меня
Войти через:  Facebook Google Twitter Vk Yandex Mail.ru

Unknown Mortal Orchestra - Ill Come Back 4 U - таба, видео

Печатать
Просмотров: 98
-----------------------------------------------------------------
I'll Come Back 4 U - Unknown Mortal Orchestra
-----------------------------------------------------------------
Unknown Mortal Orchestra Website: http://unknownmortalorchestra.com/
[Signed to Jagjaguwar]
Tabbed by: mjohnson1915

Tuning: Standard

INTRO/BRIDGE:

e|----9---7-7-6-7-9-7-6-7-9-|
B|---7---7--7---------------|
G|--8---8---8---------------|
D|-9---7----6---------------|
A|--------------------------|
E|--------------------------|

VERSE (Arpeggiated):

e|-x-x-x-x-x-1-x-x-|-2-3-0-0-0-x-|
B|-9-6-6-5-2-2-2-1-|-4-3-0-x-4-3-|
G|-8-5-6-6-1-3-3-2-|-1-4-1-3-2-2-|
D|-6-7-6-7-3-3-3-3-|-1-5-2-2-4-3-|
A|-9-8-8-4-4-x-1-x-|-x-x-2-2-2-2-|
E|-x-x-x-x-x-x-x-x-|-x-x-0-3-x-x-|

e|-4-11-7-9-|
B|-5-9--5-7-|
G|-4-9--6-8-|
D|-6-11-7-9-|
A|-x-x--x-x-|
E|-x-x--x-x-|
Добавлено: 08.10.2013
Другие материалы по этой песне:
  • Аккорды и текст

Страница создана 08.10.2013
http://primanota.ru/unknown-mortal-orchestra/ill-come-back-4-u-chords.htm
Привет, Гость.
Предлагаем пройти революционный курс по гитаре.
Подарок от PrimaNota.Ru, забирай!