PrimaNota.ru - самый крупный в мире бесплатный архив песенных текстов, аккордов, табулатур и нот


Unknown Mortal Orchestra - How Can You Love Me - таба, видео

Регистрация Запомнить меня
Войти через:  Facebook Google Twitter Vk Yandex Mail.ru

Unknown Mortal Orchestra - How Can You Love Me - таба, видео

Печатать
Просмотров: 205
-------------------------------------------------------------------------------
                             HOW CAN YOU LUV ME - Unknown Mortal Orchestra
-------------------------------------------------------------------------------
Tabbed by: Lingy
E-mail: jling@tatachilla.sa.edu.au

Tuning: standard

sounds good with a sort of psychedelic fuzz kind of effect

Intro
e|-------6-6---6------------11-11---11---------13--13-----13-----------------|
B|-------4-4---4---3--------9--9----9----------11--11-----11-----------------|
G|-------5-5---5---3--------10-10---10---------12--12-----12-----------------| X2
D|-----------------3---------------------------------------------------------|
A|---------------------------------------------------------------------------|
E|---4-4-----4-----4---9-9-------9------11-11---------11---------------------|

Verse: no guitar for first half, then starts the same as the intro
e|-------6-6---6------------11-11---11---------13--13-----13-----------------|
B|-------4-4---4---3--------9--9----9----------11--11-----11-----------------|
G|-------5-5---5---3--------10-10---10---------12--12-----12-----------------| X2
D|-----------------3---------------------------------------------------------|
A|---------------------------------------------------------------------------|
E|---4-4-----4-----4---9-9-------9------11-11---------11---------------------|

some of these chords i'm not sure about but they sound good with the song
e|------3--3---3---4-------4-4----4------3--3----3--------3--3---3-----------|
B|------1--1---1---6-------4-4----4------3--3----3--------1--1---1----1------|
G|------1--1---1---6-------5-5----5------3--3----3--------1--1---1----1------|
D|--------------------------------------------------------------------1------|
A|-----------------6---------------------------------------------------------|
E|--1-1------1---------4-4------4----3-3-------3------1-1------1------2------|

Bridge:
e|---------------------------------------------------------------------------|
B|--1--1---3--3---4--4---3--3---1--1---3--3---5------------------------------|
G|--1--1---3--3---5--5---3--3---1--1---3--3---5------------------------------|X2
D|--1--1---3--3---6--6---3--3---1--1---3--3---5------------------------------|
A|---------------------------------------------------------------------------|
E|--1--1---3--3---4--4---3--3---1--1---3--3---3------------------------------|

Intro

Verse

outro (the verse just without lyrics)

adios amigo

************************************

| /   slide up
| \   slide down
| h   hammer-on
| p   pull-off
| ~   vibrato
| +   harmonic
| x   Mute note
| b   Bend
| pb  Pre-bend
| br  Bend release
| pbr Pre-bend release
| brb Bend release bend

************************************
Добавлено: 06.08.2013
Другие материалы по этой песне:
  • Аккорды и текст

Страница создана 06.08.2013
http://primanota.ru/unknown-mortal-orchestra/how-can-you-love-me-chords.htm
Привет, Гость.
Предлагаем пройти революционный курс по гитаре.
Подарок от PrimaNota.Ru, забирай!