PrimaNota.ru - самый крупный в мире бесплатный архив песенных текстов, аккордов, табулатур и нот


Unkle - Reign - аккорды и текст, видео

Регистрация Запомнить меня
Войти через:  Facebook Google Twitter Vk Yandex Mail.ru

Unkle - Reign - аккорды и текст, видео

Печатать
Просмотров: 149
Авторы музыки: Ian Brown, Antony Genn, James Lavelle, Noel Scott Engel, Richard File

Reign
Unkle
Song: Reign
Band: Unkle (featuring Ian Brown and Mani)
Album: Never, Never, Land
Year: 2003
Tabber: beranger80@hotmail.com



Intro (0:00)

   Em
e------------------------|
b--12--------------------|
g-----11-9-11-9-11-9-11--|
d------------------------| x4
a------------------------|
e------------------------|



Verse (0:29)

Em
I am the lightning, I am the heat
C
I am the rain
             Em
Rain (reign) all day
I am the rain
                       C
I'm gonna reign this way again
           Em
I am the rain



Bridge (1:16)

  Em
e--------|-------------|
b--12----|--8---10-----|
g-----9--|----9----11--|
d--------|-------------|
a--------|-------------|
e--------|-------------|
       x7



Verse (1:29)

Em
I am the spy, before the blade
          C
I am the raindrop out at sea
                                    D     Em
I cause the ripples that become the crashing waves
I am the rain
              C
Rain (reign) all day
           Em
I am the rain



Pizzicato riff (2:15)

e-------------------------|
b----12---10---8---7-3-5--|
g-11----9----7---7--------|
d-------------------------| x8 (and 8 more times during the bridge)
a-------------------------|
e-------------------------|



Bridge (2:44)

Em
You thought a different day had come
A day you thought the earth was done
And if you could have said it all
I know you would have said it all



Verse (3:14)

Em
I am the rain
I'm gonna reign this way again
C      
I am the rain
                 Em
Rain (reign) all day



Verse (3:51)

Em               C
You thought a different day had come
A day you thought the earth was done
Em
I am the rain
           C
And if you could have said it all
I know you would have said it all
Em
I am the rain 



Outro (4:22)

bass riff

g------------------|
d------------------|
a-------7-7--7--7--|
e--7-9-------------|

then Em Em Em Em to the end....
Добавлено: 12.08.2015
Другие материалы по этой песне:
  • Аккорды и текст

Страница создана 22.05.2012
http://primanota.ru/unkle/reign-chords.htm
Привет, Гость.
Предлагаем пройти революционный курс по гитаре.
Подарок от PrimaNota.Ru, забирай!