PrimaNota.ru - самый крупный в мире бесплатный архив песенных текстов, аккордов, табулатур и нот


Union 13 - Ronalds Fuckhouse - аккорды и текст, таба, видео

Регистрация Запомнить меня
Войти через:  Facebook Google Twitter Vk Yandex Mail.ru

Union 13 - Ronalds Fuckhouse - аккорды и текст, таба, видео

Печатать
Просмотров: 144
Ronalds Fuckhouse
Union 13
		   of times

Verse
e|-------------------------------------
b|-------------------------------------
g|-7-7-7--10-9-7-----------------------
d|-7-7-7--10-9-7-10-10-10-10-10-10-10--
a|-5-5-5--8--7-5-10-10-10-10-10-10-10--
E|---------------8--8--8--8--8--8--8---

Chorus
e|-------------------------------
b|-------------------------------
g|-------------------------------
d|-7-7-7-8-8-8-9-9-9-10-10-10----
a|-7-7-7-8-8-8-9-9-9-10-10-10----
E|-5-5-5-6-6-6-7-7-7-8--8--8-----

That's it, if you have more Union 13 tabs, please e-mail me.
     
Добавлено: 21.08.2013
Вам также может быть интересно:
Другие материалы по этой песне:
  • Аккорды и текст

Страница создана 06.04.2012
http://primanota.ru/union-13/ronalds-fuckhouse-chords.htm
Привет, Гость.
Предлагаем пройти революционный курс по гитаре.
Подарок от PrimaNota.Ru, забирай!