PrimaNota.ru - самый крупный в мире бесплатный архив песенных текстов, аккордов, табулатур и нот


Uniklubi - Rakkaudesta Hulluuteen - таба, видео

Регистрация Запомнить меня
Войти через:  Facebook Google Twitter Vk Yandex Mail.ru

Uniklubi - Rakkaudesta Hulluuteen - таба, видео

Печатать
Просмотров: 148
                       UNIKLUBI: RAKKAUDESTA HULLUUTEEN




2xINTRO:

e|------------------5-5-5-5-5-5-5-5-------------------5-5-5-5-5-5-5-5--------|
B|-------7-7-7-5-5-5----------------------7-7-7-5-5-5------------------------|
G|-4-4-4----------------------------4-4-4------------------------------------|
D|---------------------------------------------------------------------------|
A|---------------------------------------------------------------------------|
E|---------------------------------------------------------------------------|

e|---------------------------------------------------------------------------|
B|-------------------5-5-5-5-5-5-5-5---5-5-5-------------5-5-5---------------|
G|-------6-6-6-4-4-4-------------------------7-7-7-6-6-6-------6-2/4---------|
D|-4-4-4---------------------------------------------------------------------|
A|---------------------------------------------------------------------------|
E|---------------------------------------------------------------------------|



Bm         D       G      
Yö päättyy kauniisti
A                  Em
Taas jätät jälkesi minuun
Bm             D       G
Ja aamut sinun vierellä
A                Em 
Eivät satu minua silmiin


REFRAIN:

G        A           D           G    
En tiedä kuolisinko, sinun vuoksesi
G         A            D         G
Kun siinä ei oo mitään pelättävää
G                 A
Mitä silloin jää, jos ei tunne mitään...


CHORUS:

            Bm                     D      G
Rakkaudesta hulluuteen, ammu  nuoli minun sydämeen
            A                        Em  
Polta minut loppuun, revi haavat auki suudelmin
            Bm                 D     G
Heikkouteni rakkauteen, vienyt minut hulluuteen
             A                          Em
Poltat minut loppuun, revit haavat auki suudelmin

Rakkaudesta hulluuteen

INTRO 


Bm               D          G    
Taas valo taittuu kasvoiltasi
A                       Em
Herään kun katsot minua silmiin
Bm                D       G
Niin paljon kiinni hetkissä
A                Em
Joita vietät mun vierellä

REFRAIN
CHORUS

SOLO:
e|---------5------------------------------------------------------------------|
B|-------5---5--7x20------------------5x8--7x8--------------------------------|
G|---4-7-------------7x16--6x16--7x16-----------------------------------------|
D|-4--------------------------------------------------------------------------|
A|----------------------------------------------------------------------------|
E|----------------------------------------------------------------------------|


x = times

CHORUS
INTRO

Revi haavat auki suudelmin

INTRO


Tabbed by: Dan Collin
Email: dan.collin@netti.fi
Добавлено: 17.05.2012
Другие материалы по этой песне:
  • Аккорды и текст

Страница создана 17.05.2012
http://primanota.ru/uniklubi/rakkaudesta-hulluuteen-chords.htm
Привет, Гость.
Предлагаем пройти революционный курс по гитаре.
Подарок от PrimaNota.Ru, забирай!