PrimaNota.ru - самый крупный в мире бесплатный архив песенных текстов, аккордов, табулатур и нот


Uniform Choice - Use Your Head - таба, видео

Регистрация Запомнить меня
Войти через:  Facebook Google Twitter Vk Yandex Mail.ru

Uniform Choice - Use Your Head - таба, видео

Печатать
Просмотров: 65
-------------------------------------------------------------------------------
                          USE YOUR HEAD - Uniform Choice
-------------------------------------------------------------------------------

    Verse 
E|--------------------------------------------------------------------
B|--------------------------------------------------------------------
C|--------------------------------------------------------------------
D|---5--5--5--5---5--5--3--3---5--5--3--3--5--5--3--3---5--5--3--3----
A|---5--5--5--5---5--3--1--3---5--3--1--3--5--3--1--3---5--3--1--3----
E|---3--3--3--3---3--------1---3--------1--3--------1---3--------1----

E|--------------------------------------------------------------------
B|--------------------------------------------------------------------
C|--------------------------------------------------------------------
D|--5--8--10--8-8-8--5--8--10--8-8-8--5--8--10--8-8-8--5--8--10--8-8-8
A|--5--8--10--6-6-6--5--8--10--6-6-6--5--8--10--6-6-6--5--8--10--6-6-6
E|--3--6--8----------3--6--8----------3--6--8----------3--6--8--------

E|------------------------------------------------------
B|------------------------------------------------------
C|------------------------------------------------------
D|--5--5--3--3---5--5--3--3--5--5--3--3---5--5--3--3----
A|--5--3--1--3---5--3--1--3--5--3--1--3---5--3--1--3----
E|--3--------1---3--------1--3--------1---3--------1----

E|--------------------------------------------------------------------
B|--------------------------------------------------------------------
C|--------------------------------------------------------------------
D|--5--8--10--8-8-8--5--8--10--8-8-8--5--8--10--8-8-8--5--8--10--8-8-8
A|--5--8--10--6-6-6--5--8--10--6-6-6--5--8--10--6-6-6--5--8--10--6-6-6
E|--3--6--8----------3--6--8----------3--6--8----------3--6--8--------

    Chorus
E|-----------------------------------------------
B|-----------------------------------------------
C|-----------------------------------------------
D|--5-5---7-7-7-7--7-7-7-7--3-3-3-3--3-3-3-3-----
A|--5-5---7-7-7-7--5-5-5-5--3-3-3-3--1-1-1-1-----
E|--3-3---5-5-5-5-----------1-1-1-1--------------

E|-----------------------------------------
B|-----------------------------------------
C|-----------------------------------------
D|--7-7-7-7--7-7-7-7--3-3-3-3--3-3-3-3-----
A|--7-7-7-7--5-5-5-5--3-3-3-3--1-1-1-1-----
E|--5-5-5-5-----------1-1-1-1--------------

E|------------------------------------------------------
B|------------------------------------------------------
C|------------------------------------------------------
D|--5--5--3--3---5--5--3--3--5--5--3--3---5--5--3--3----
A|--5--3--1--3---5--3--1--3--5--3--1--3---5--3--1--3----
E|--3--------1---3--------1--3--------1---3--------1----

E|--------------------------------------------------------------------
B|--------------------------------------------------------------------
C|--------------------------------------------------------------------
D|--5--8--10--8-8-8--5--8--10--8-8-8--5--8--10--8-8-8--5--8--10--8-8-8
A|--5--8--10--6-6-6--5--8--10--6-6-6--5--8--10--6-6-6--5--8--10--6-6-6
E|--3--6--8----------3--6--8----------3--6--8----------3--6--8--------

E|------------------------------------||
B|------------------------------------||
C|------------------------------------||
D|--5---------------------------------||
A|--5---------------------------------||
E|--3---------------------------------||

-------------------------------------------------------------------------------
Добавлено: 01.06.2016
Другие материалы по этой песне:
  • Аккорды и текст

Страница создана 01.06.2016
http://primanota.ru/uniform-choice/use-your-head-chords.htm
Привет, Гость.
Предлагаем пройти революционный курс по гитаре.
Подарок от PrimaNota.Ru, забирай!