PrimaNota.ru - самый крупный в мире бесплатный архив песенных текстов, аккордов, табулатур и нот


Uniform Choice - Straight And Alert - таба, видео

Регистрация Запомнить меня
Войти через:  Facebook Google Twitter Vk Yandex Mail.ru

Uniform Choice - Straight And Alert - таба, видео

Печатать
Просмотров: 52
-------------------------------------------------------------------------------
                      STRAIGHT AND ALERT - Uniform Choice
-------------------------------------------------------------------------------

   Intro
E|---------------------------------------------------------
B|---------------------------------------------------------
C|---------------------------------------------------------
D|--7--7--4--4-4-4-4-4--5-5-5-5--7-5--4-4-4-4--5-5-5-5-----
A|--5--7--4--4-4-4-4-4--5-5-5-5-------4-4-4-4--5-5-5-5-----
E|-----5--2--2-2-2-2-2--3-3-3-3-------2-2-2-2--3-3-3-3-----

E|-----------------------------------------------------------------
B|-----------------------------------------8-8-8-8--10-8--7-7-7-7--
C|-----------------------------------------------------------------
D|--7-5--4-4-4-4--5-5-5-5--7-5--4-5-4-4-4--------------------------
A|-----------------------------------------------------------------
E|-----------------------------------------------------------------

E|--------------------------------------------
B|--8-8-8-8--10-8--7-7-7-7--8-8-8-8--10--8-7--
C|--------------------------------------------
D|--------------------------------------------
A|--------------------------------------------
E|--------------------------------------------
  
   Verse
E|---------------------------      
B|---------------------------      
C|---------------------------     
D|--4-4-4-4-4--5-5-5-5--7-5-- |x4  
A|--4-4-4-4-4--5-5-5-5-------/     
E|--2-2-2-2-2--3-3-3-3-------      

E|-------------------------------------------------------
B|-------------------------------------------------------
C|-------------------------------------------------------
D|--4-4-4-4--5--4-4-4-4--5--4-4-4-4--5--4-4-4-4--5-5--4--
A|--4-4-4-4--5--4-4-4-4--5--4-4-4-4--5--4-4-4-4--5-5--4--
E|--2-2-2-2--3--2-2-2-2--3--2-2-2-2--3--2-2-2-2--3-3--2--

   Chorus
E|-----------------------------------------------
B|-----------------------------------------------
C|-----------------------------------------------
D|--7-7-7-7-7-7--8-8-8--7-7-7---8-8-8--7-7-7-----
A|--7-7-7-7-7-7--8-8-8--7-7-7---8-8-8--7-7-7-----
E|--5-5-5-5-5-5--6-6-6--5-5-5---6-6-6--5-5-5-----

E|--------------------------------------
B|--------------------------------------
C|--------------------------------------
D|--7-7--5--7-7--4--7-7--5--7-7--7------ |x5
A|--7-7--3--7-7--4--7-7--3--7-7--5------/
E|--5-5-----5-5--2--5-5-----5-5---------

   Intro  ->
  
   Verse  ->

   Chorus ->

E|-------------------||
B|-------------------||
C|-------------------||
D|--7----------------||
A|--5----------------||
E|-------------------||

-------------------------------------------------------------------------------
Добавлено: 18.04.2016
Вам также может быть интересно:
Другие материалы по этой песне:
  • Аккорды и текст

Страница создана 18.04.2016
http://primanota.ru/uniform-choice/straight-and-alert-chords.htm
Привет, Гость.
Предлагаем пройти революционный курс по гитаре.
Подарок от PrimaNota.Ru, забирай!