PrimaNota.ru - самый крупный в мире бесплатный архив песенных текстов, аккордов, табулатур и нот


Uniform Choice - Screaming For Change - таба, видео

Регистрация Запомнить меня
Войти через:  Facebook Google Twitter Vk Yandex Mail.ru

Uniform Choice - Screaming For Change - таба, видео

Печатать
Просмотров: 102
Уроки эстрадного вокала в Санкт-Петербурге
-------------------------------------------------------------------------------
                     SCREAMING FOR CHANGE - Uniform Choice
-------------------------------------------------------------------------------

   Intro
E|-------------------------------------------------------------------
B|-------------------------------------------------------------------
C|-------------------------------------------------------------------
D|-----------------------------------9-9-9-9--5-5-5-5--7-7-7-7-------
A|--7-7-7-7-----------5-5-5-5--------7-7-7-7--5-5-5-5--5-5-5-5--7-7--
E|-----------3-3-3-3-----------5-5------------3-3-3-3-----------5-5--

   Verse 1
E|--------------------------------------------------
B|--------------------------------------------------
C|--------------------------------------------------
D|--9-9-9-9--5-5-5-5--7-7-7-7--7-7------------------ |x4
A|--7-7-7-7--5-5-5-5--5-5-5-5--7-7------------------/
E|-----------3-3-3-3-----------5-5------------------

   Chorus
E|--------------
B|--------------
C|--------------
D|--9--5--7--7-- |x2
A|--7--5--5--7--/
E|-----3-----5--

   Verse 2
E|--------------------------------------------------
B|--------------------------------------------------
C|--------------------------------------------------
D|--7-7-7-7--3-3-3-3--5--5-5------------------------ |x6
A|--7-7-7-7--3-3-3-3--3--5-5------------------------/
E|--5-5-5-5--1-1-1-1-----3-3------------------------

   Chorus  ->
 
   Verse 1 ->

   Chorus  ->

   Verse 2 ->

   Chorus (Outro)
E|----------------------------------      ----------||
B|----------------------------------      ----------||
C|----------------------------------     ----------||
D|--9-9-9-9--5-5-5-5--7-7-7-7--7-7-- |x4  ----9-----|| 
A|--7-7-7-7--5-5-5-5--5-5-5-5--7-7--/     ----7-----||
E|-----------3-3-3-3-----------5-5--      ----------||

-------------------------------------------------------------------------------
Добавлено: 01.06.2016
Другие материалы по этой песне:
  • Аккорды и текст

Страница создана 01.06.2016
http://primanota.ru/uniform-choice/screaming-for-change-chords.htm
Привет, Гость.
Предлагаем пройти революционный курс по гитаре.
Подарок от PrimaNota.Ru, забирай!