PrimaNota.ru - самый крупный в мире бесплатный архив песенных текстов, аккордов, табулатур и нот


Uniform Choice - Scream To Say - таба, видео

Регистрация Запомнить меня
Войти через:  Facebook Google Twitter Vk Yandex Mail.ru

Uniform Choice - Scream To Say - таба, видео

Печатать
Просмотров: 62
-------------------------------------------------------------------------------
                         SCREAM TO SAY - Uniform Choice
-------------------------------------------------------------------------------

   Verse
E|-------------------------------------------------------------
B|-------------------------------------------------------------
C|-------------------------------------------------------------
D|--7-7-7--10-10-10--5-5-5--7-5---7-7-7--10-10-10--5-5-5--7-5--
A|--5-5-5--8--8--8---3-3-3--5-3---5-5-5--8--8--8---3-3-3--5-3--
E|-------------------------------------------------------------

E|-------------------------------------------------------------
B|-------------------------------------------------------------
C|-------------------------------------------------------------
D|--7-7-7--10-10-10--5-5-5--7-5---7-7-7--10-10-10--5-5-5--7-5--
A|--5-5-5--8--8--8---3-3-3--5-3---5-5-5--8--8--8---3-3-3--5-3--
E|-------------------------------------------------------------

   Chorus
E|---------------------------------------------------
B|---------------------------------------------------
C|---------------------------------------------------
D|--5-5-5-5-5--7-7-7--7--5---5-5-5-5-5--7-7-7--7--5--
A|--5-5-5-5-5--7-7-7--5--3---5-5-5-5-5--7-7-7--5--3--
E|--3-3-3-3-3--5-5-5---------3-3-3-3-3--5-5-5--------

E|---------------------------------------------------
B|---------------------------------------------------
C|---------------------------------------------------
D|--5-5-5-5-5--7-7-7--7--5---5-5-5-5-5--7-7-7--7--5--
A|--5-5-5-5-5--7-7-7--5--3---5-5-5-5-5--7-7-7--5--3--
E|--3-3-3-3-3--5-5-5---------3-3-3-3-3--5-5-5--------

   Verse
E|-------------------------------------------------------------
B|-------------------------------------------------------------
C|-------------------------------------------------------------
D|--7-7-7--10-10-10--5-5-5--7-5---7-7-7--10-10-10--5-5-5--7-5--
A|--5-5-5--8--8--8---3-3-3--5-3---5-5-5--8--8--8---3-3-3--5-3--
E|-------------------------------------------------------------

E|-------------------------------------------------------------
B|-------------------------------------------------------------
C|-------------------------------------------------------------
D|--7-7-7--10-10-10--5-5-5--7-5---7-7-7--10-10-10--5-5-5--7-5--
A|--5-5-5--8--8--8---3-3-3--5-3---5-5-5--8--8--8---3-3-3--5-3--
E|-------------------------------------------------------------

   Chorus
E|---------------------------------------------------
B|---------------------------------------------------
C|---------------------------------------------------
D|--5-5-5-5-5--7-7-7--7--5---5-5-5-5-5--7-7-7--7--5--
A|--5-5-5-5-5--7-7-7--5--3---5-5-5-5-5--7-7-7--5--3--
E|--3-3-3-3-3--5-5-5---------3-3-3-3-3--5-5-5--------

E|---------------------------------------------------
B|---------------------------------------------------
C|---------------------------------------------------
D|--5-5-5-5-5--7-7-7--7--5---5-5-5-5-5--7-7-7--7--5--
A|--5-5-5-5-5--7-7-7--5--3---5-5-5-5-5--7-7-7--5--3--
E|--3-3-3-3-3--5-5-5---------3-3-3-3-3--5-5-5--------

E|---------------------------------------------------------------
B|---------------------------------------------------------------
C|--7-7-7--10-10-10--5-5-5--7-5-----7-7-7--10-10-10--5-5-5--7-5--
D|---------------------------------------------------------------
A|---------------------------------------------------------------
E|---------------------------------------------------------------

   Chorus
E|---------------------------------------------------
B|---------------------------------------------------
C|---------------------------------------------------
D|--5-5-5-5-5--7-7-7--7--5---5-5-5-5-5--7-7-7--7--5--
A|--5-5-5-5-5--7-7-7--5--3---5-5-5-5-5--7-7-7--5--3--
E|--3-3-3-3-3--5-5-5---------3-3-3-3-3--5-5-5--------

E|---------------------------------------------------
B|---------------------------------------------------
C|---------------------------------------------------
D|--5-5-5-5-5--7-7-7--7--5---5-5-5-5-5--7-7-7--7--5--
A|--5-5-5-5-5--7-7-7--5--3---5-5-5-5-5--7-7-7--5--3--
E|--3-3-3-3-3--5-5-5---------3-3-3-3-3--5-5-5--------

   Verse
E|-------------------------------------------------------------
B|-------------------------------------------------------------
C|-------------------------------------------------------------
D|--7-7-7--10-10-10--5-5-5--7-5---7-7-7--10-10-10--5-5-5--7-5--
A|--5-5-5--8--8--8---3-3-3--5-3---5-5-5--8--8--8---3-3-3--5-3--
E|-------------------------------------------------------------

E|----------------------------------------------------------------
B|----------------------------------------------------------------
C|----------------------------------------------------------------
D|--7-7-7--10-10-10--5-5-5--7-5---7-7-7--10-10-10--5-5-5--7-5--7--
A|--5-5-5--8--8--8---3-3-3--5-3---5-5-5--8--8--8---3-3-3--5-3--5--
E|----------------------------------------------------------------

   Chorus
E|---------------------------------------------------
B|---------------------------------------------------
C|---------------------------------------------------
D|--5-5-5-5-5--7-7-7--7--5---5-5-5-5-5--7-7-7--7--5--
A|--5-5-5-5-5--7-7-7--5--3---5-5-5-5-5--7-7-7--5--3--
E|--3-3-3-3-3--5-5-5---------3-3-3-3-3--5-5-5--------

E|---------------------------------------------------||
B|---------------------------------------------------||
C|---------------------------------------------------||
D|--5-5-5-5-5--7-7-7--7--5---5-5-5-5-5--7-7-7--7--5--||
A|--5-5-5-5-5--7-7-7--5--3---5-5-5-5-5--7-7-7--5--3--||
E|--3-3-3-3-3--5-5-5---------3-3-3-3-3--5-5-5--------||

-------------------------------------------------------------------------------
Добавлено: 01.06.2016
Другие материалы по этой песне:
  • Аккорды и текст

Страница создана 01.06.2016
http://primanota.ru/uniform-choice/scream-to-say-chords.htm
Привет, Гость.
Предлагаем пройти революционный курс по гитаре.
Подарок от PrimaNota.Ru, забирай!