PrimaNota.ru - самый крупный в мире бесплатный архив песенных текстов, аккордов, табулатур и нот


Uniform Choice - Once I Cry - таба, видео

Регистрация Запомнить меня
Войти через:  Facebook Google Twitter Vk Yandex Mail.ru

Uniform Choice - Once I Cry - таба, видео

Печатать
Просмотров: 98
Уроки эстрадного вокала в Санкт-Петербурге
-------------------------------------------------------------------------------
                            ONCE I CRY - Uniform Choice
-------------------------------------------------------------------------------

    Intro
E|-------------------------------------------------------------
B|-------------------------------------------------------------
C|-------------------------------------------------------------
D|--9-9-9-9-9--9--7--9-9-9-9-9---9-9-9-9-9--9--7--9-9-9-9-9----
A|--9-9-9-9-9--9--7--9-9-9-9-9---9-9-9-9-9--9--7--9-9-9-9-9----
E|--7-7-7-7-7--7--5--7-7-7-7-7---7-7-7-7-7--7--5--7-7-7-7-7----

E|-------------------------------------------------------------
B|-------------------------------------------------------------
C|-------------------------------------------------------------
D|--9-9-9-9-9--9--7--9-9-9-9-9---9-9-9-9-9--9--7--9-9-9-9-9----
A|--9-9-9-9-9--9--7--9-9-9-9-9---9-9-9-9-9--9--7--9-9-9-9-9----
E|--7-7-7-7-7--7--5--7-7-7-7-7---7-7-7-7-7--7--5--7-7-7-7-7----

    Verse
E|-------------------------------------------------------------
B|-------------------------------------------------------------
C|-------------------------------------------------------------
D|--5-5-5-5-5--7-7-7-7-7--5-5-5-5-5--7-7-7-7-7-----------------
A|--5-5-5-5-5--5-5-5-5-5--5-5-5-5-5--5-5-5-5-5-----------------
E|--3-3-3-3-3-------------3-3-3-3-3----------------------------

E|-------------------------------------------------------------
B|-------------------------------------------------------------
C|-------------------------------------------------------------
D|--5-5-5-5-5--7-7-7-7-7--5-5-5-5-5--7-7-7-7-7-----------------
A|--5-5-5-5-5--5-5-5-5-5--5-5-5-5-5--5-5-5-5-5-----------------
E|--3-3-3-3-3-------------3-3-3-3-3----------------------------

    Chorus
E|-------------------------------------------------------------
B|-------------------------------------------------------------
C|-------------------------------------------------------------
D|--9-9-9-9-9--9--7--9-9-9-9-9---9-9-9-9-9--9--7--9-9-9-9-9----
A|--9-9-9-9-9--9--7--9-9-9-9-9---9-9-9-9-9--9--7--9-9-9-9-9----
E|--7-7-7-7-7--7--5--7-7-7-7-7---7-7-7-7-7--7--5--7-7-7-7-7----

E|-------------------------------------------------------------
B|-------------------------------------------------------------
C|-------------------------------------------------------------
D|--9-9-9-9-9--9--7--9-9-9-9-9---9-9-9-9-9--9--7--9-9-9-9-9----
A|--9-9-9-9-9--9--7--9-9-9-9-9---9-9-9-9-9--9--7--9-9-9-9-9----
E|--7-7-7-7-7--7--5--7-7-7-7-7---7-7-7-7-7--7--5--7-7-7-7-7----

    Verse
E|-------------------------------------------------------------
B|-------------------------------------------------------------
C|-------------------------------------------------------------
D|--5-5-5-5-5--7-7-7-7-7--5-5-5-5-5--7-7-7-7-7-----------------
A|--5-5-5-5-5--5-5-5-5-5--5-5-5-5-5--5-5-5-5-5-----------------
E|--3-3-3-3-3-------------3-3-3-3-3----------------------------

E|-------------------------------------------------------------
B|-------------------------------------------------------------
C|-------------------------------------------------------------
D|--5-5-5-5-5--7-7-7-7-7--5-5-5-5-5--7-7-7-7-7-----------------
A|--5-5-5-5-5--5-5-5-5-5--5-5-5-5-5--5-5-5-5-5-----------------
E|--3-3-3-3-3-------------3-3-3-3-3----------------------------

    Chorus
E|-------------------------------------------------------------
B|-------------------------------------------------------------
C|-------------------------------------------------------------
D|--9-9-9-9-9--9--7--9-9-9-9-9---9-9-9-9-9--9--7--9-9-9-9-9----
A|--9-9-9-9-9--9--7--9-9-9-9-9---9-9-9-9-9--9--7--9-9-9-9-9----
E|--7-7-7-7-7--7--5--7-7-7-7-7---7-7-7-7-7--7--5--7-7-7-7-7----

E|-------------------------------------------------------------||
B|-------------------------------------------------------------||
C|-------------------------------------------------------------||
D|--9-9-9-9-9--9--7--9-9-9-9-9---9-9-9-9-9--9--7--9-9-9-9-9----||
A|--9-9-9-9-9--9--7--9-9-9-9-9---9-9-9-9-9--9--7--9-9-9-9-9----||
E|--7-7-7-7-7--7--5--7-7-7-7-7---7-7-7-7-7--7--5--7-7-7-7-7----||

-------------------------------------------------------------------------------
Добавлено: 01.06.2016
Другие материалы по этой песне:
  • Аккорды и текст

Страница создана 01.06.2016
http://primanota.ru/uniform-choice/once-i-cry-chords.htm
Привет, Гость.
Предлагаем пройти революционный курс по гитаре.
Подарок от PrimaNota.Ru, забирай!