PrimaNota.ru - самый крупный в мире бесплатный архив песенных текстов, аккордов, табулатур и нот


Uniform Choice - A Choice - таба, бас-таба, видео

Регистрация Запомнить меня
Войти через:  Facebook Google Twitter Vk Yandex Mail.ru

Uniform Choice - A Choice - таба, бас-таба, видео

Печатать
Просмотров: 65
-------------------------------------------------------------------------------
                               A CHOICE - Uniform Choice
-------------------------------------------------------------------------------

   Intro
E|-----------------------------------------------------------------
B|-----------------------------------------------------------------
C|-----------------------------------------------------------------
D|-----------------------------------------6----6----6-------------
A|-----------5-5-5-5-----------2-2-2-2-----6----6----6-------------
E|--4-4-4-4-----------2-2-2-2--------------4----4----4-------------

E|-----------------------------------------------------------------
B|-----------------------------------------------------------------
C|-----------------------------------------------------------------
D|--6-6-6-6--7-7-7-7--4-4-4-4--4-4-4-4----------------------------- |x4
A|--6-6-6-6--5-5-5-5--4-4-4-4--2-2-2-2-----------------------------/
E|--4-4-4-4-----------2-2-2-2--------------------------------------

   Verse
E|-----------------------------------------------------------------
B|-----------------------------------------------------------------
C|------------------7----------------------------------------------
D|--6-6--6-----7-7-----7---4-4-4-4--4-4-4-4------------------------ |x4
A|--6-6-----6--5-5---------4-4-4-4--2-2-2-2------------------------/
E|--4-4--------------------2-2-2-2---------------------------------

E|-----------------------------------------------------------------
B|-----------------------------------------------------------------
C|-----------------------------------------------------------------
D|--6-6-6-6--7-7-7-7--4-4-4-4--4-4-4-4----------------------------- |x2
A|--6-6-6-6--5-5-5-5--4-4-4-4--2-2-2-2-----------------------------/
E|--4-4-4-4-----------2-2-2-2--------------------------------------

   Chorus
E|-----------------------------------------------------------------
B|-----------------------------------------------------------------
C|-----------------------------------------------------------------
D|--6--7--6--7---6--7--9--7-----6--7--6--7---9--7--6--------------- |x2
A|--6--5--4--7---6--7--9--7-----6--5--4--7---9--7--6---------------/
E|--4--------5---4--5--7--5-----4--------5---7--5--4---------------

   Verse  ->

   Chorus ->

   Solo
E|-----------------------------------------------------------------
B|-----------------------------------------------------------------
C|--8-8-8-8-8-8-8-8-8-8-8----9-11-9-11-9-11-9-11-9-11-9-11-9-11-9--
D|-----------------------------------------------------------------
A|-----------------------------------------------------------------
E|-----------------------------------------------------------------

E|-----------------------------------------------------------------
B|-----------------------------------------------------------------
C|-----------------------------------------------------------------
D|--6-6-6-6--7-7-7-7--9-9-9-9--9-7--6-6-6--6--7-9-7--9-7-7-9-7-9-7-
A|-----------------------------------------------------------------
E|-----------------------------------------------------------------

   Verse  ->
  
   Chorus ->

   Outro
E|-----------------------------------------------------------------||
B|-----------------------------------------------------------------||
C|-----------------------------------------------------------------||
D|--9--11-10-9--9-11-12--11----9--11-10-9--12-11--9----------------||
A|--9--9--8--7--9-11-12--11----9--9--8--7--12-11--9----------------||
E|--7-----------7-9--10--9-----7-----------10-9---7----------------||

-------------------------------------------------------------------------------


Добавлено: 01.06.2016
Другие материалы по этой песне:
  • Аккорды и текст

Страница создана 18.04.2016
http://primanota.ru/uniform-choice/choice-chords.htm
Привет, Гость.
Предлагаем пройти революционный курс по гитаре.
Подарок от PrimaNota.Ru, забирай!