PrimaNota.ru - самый крупный в мире бесплатный архив песенных текстов, аккордов, табулатур и нот


Uniform Choice - Build To Break - таба, видео

Регистрация Запомнить меня
Войти через:  Facebook Google Twitter Vk Yandex Mail.ru

Uniform Choice - Build To Break - таба, видео

Печатать
Просмотров: 66
-------------------------------------------------------------------------------
                         BUILD TO BREAK - Uniform Choice
-------------------------------------------------------------------------------

   Intro
E|-----------------------------------------------------
B|-----------------------------------------------------
C|-----------------------------------------------------
D|--9----9-9-9-9--7--7--9---9-9-9-9--7--7--9----------- |x2
A|--9----9-9-9-9--5--7--9---9-9-9-9--5--7--7-----------/
E|--7----7-7-7-7-----5--7---7-7-7-7-----5--------------
 
   Verse
E|----------------------------------------
B|----------------------------------------
C|----------------------------------------
D|--9-9-9--7--7---9-9-9--7--7------------- |x2
A|--9-9-9--5--7---9-9-9--5--7-------------/
E|--7-7-7-----5---7-7-7-----5-------------

   Chorus
E|---------------------------------------------------
B|---------------------------------------------------
C|---------------------------------------------------
D|--7-7-7-7--4-4-4-4-4----5-5-5-5--7-7-7--4-4-4-4-4--
A|--5-5-5-5--2-2-2-2-2----5-5-5-5--5-5-5--2-2-2-2-2--
E|------------------------3-3-3-3--------------------

E|---------------------------------------------------
B|---------------------------------------------------
C|---------------------------------------------------
D|--7-7-7-7--4-4-4-4-4----5-5-5-5--4-4-4-4-4---------
A|--5-5-5-5--2-2-2-2-2----5-5-5-5--2-2-2-2-2---------
E|------------------------3-3-3-3--------------------

   Verse  ->

   Chorus ->

   Outro
E|----------------------------------------     ||
B|----------------------------------------     ||
C|----------------------------------------    ||
D|--5-5-5-5--2-2-2-2--7-7-7-7--5-5-5-5---- |x4 || 
A|--5-5-5-5--2-2-2-2--7-7-7-7--5-5-5-5----/    ||
E|--3-3-3-3--0-0-0-0--5-5-5-5--3-3-3-3----     ||

-------------------------------------------------------------------------------
Добавлено: 01.06.2016
Другие материалы по этой песне:
  • Аккорды и текст

Страница создана 01.06.2016
http://primanota.ru/uniform-choice/build-to-break-chords.htm
Привет, Гость.
Предлагаем пройти революционный курс по гитаре.
Подарок от PrimaNota.Ru, забирай!