PrimaNota.ru - самый крупный в мире бесплатный архив песенных текстов, аккордов, табулатур и нот


Unicorns - I Was Born A Unicorn - таба, бас-таба, видео

Регистрация Запомнить меня
Войти через:  Facebook Google Twitter Vk Yandex Mail.ru

Unicorns - I Was Born A Unicorn - таба, бас-таба, видео

Печатать
Просмотров: 222
The Unicorns
I was born (a unicorn)
Tabbed by Ginko

Standard Tuning

Intro
|-----11----------11----------11------11--13--11----------11----------11----------11------11--13--11------|
|-------13----------13----------13--------------------------13----------13----------13--------------------|
|--13-----13---13-----13---12-----12---------------12-13------13---13-----13---12-----12------------------|
|---------------------------------------------------------------------------------------------------------|
|---------------------------------------------------------------------------------------------------------|
|---------------------------------------------------------------------------------------------------------|

|-------11----------11----------11------11--13-13--11--------11----------11----------11------11--13--15---|
|---------13----------13----------13---------------------------13----------13----------13-----------------|
|-12-13-----13---13-----13---12-----12-------------------13------13---13-----13---12-----12---------------|
|---------------------------------------------------------------------------------------------------------|
|---------------------------------------------------------------------------------------------------------|
|---------------------------------------------------------------------------------------------------------|
                                                                  
|-------------------------------------------------------------------------------------|
|-------5-------5-------5----5-7-5----------5-------5-------5-----7-7-7-7-7--5--------|
|--------6-------6-------6-------------------6-------6-------6----6-6-6-6-6--6--------|
|--6/7----7---7---7---6---6---------6--6/7----7---7---7---6---6---6-6-6-6-6--6--------|
|-------------------------------------------------------------------------------------|
|-------------------------------------------------------------------------------------|

|-------------------------------------------------------------------------------------|
|-------5-------5-------5----5-7-5----------5-------5-------5-----5--7--9----------0--|
|--------6-------6-------6-------------------6-------6-------6----6--6--9-------------|
|--6/7----7---7---7---6---6---------6--6/7----7---7---7---6---6---6--6--9-------------|
|-------------------------------------------------------------------------------------|
|-------------------------------------------------------------------------------------|

Verse 
I was born...
|------------------------------------5----|
|-------5---------7-------5--------5------|
|---6-6--6--6h7-7--7--6-6--6---4-4--------| Repeat until end of verses.
|-----------------------------------------|
|-----------------------------------------|
|-----------------------------------------|

Bridge
are dead...
|---0-------------------------------------------------------------|
|---2----1--2----1--2----1--2----1--2----1--2----1--2-------2-----|
|---2----1--2----1--2----1--2----1--2----1--2----1--2-------2-----|
|---2----1--2----1--2----1--2----1--2----1--2----1--2-------2-----|
|---0----0--0----0--0----0--0----0--0----0--0----0--0-------0-----|
|-----------------------------------------------------------------|

Chorus
|--------------------------------|
|---2--2----------7-7-7-7-7-----|
|---2--2----------7-7-7-7-7-----|  Repeat until end of chorus
|---2--2----------x-x-x-x-x------|  then go back to verse.
|---0--0--2-3-5-7-7-7-7-7-7-----|
|--------------------------------|

Ginko
caterpillarsarepeopletoo@hotmail.com

Добавлено: 10.06.2012
Другие материалы по этой песне:

Страница создана 07.03.2012
http://primanota.ru/unicorns/i-was-born-a-unicorn-chords.htm
Привет, Гость.
Предлагаем пройти революционный курс по гитаре.
Подарок от PrimaNota.Ru, забирай!