PrimaNota.ru - самый крупный в мире бесплатный архив песенных текстов, аккордов, табулатур и нот


Uni Stefson - Lamb - таба, видео

Регистрация Запомнить меня
Войти через:  Facebook Google Twitter Vk Yandex Mail.ru

Uni Stefson - Lamb - таба, видео

Печатать
Просмотров: 72
-------------------------------------------------------------------------------
                               Lamb - Uni Stefson
-------------------------------------------------------------------------------
Tabbed by: Tómas Torrini 
E-mail: TorriniTD@hotmail.com

Tuning: EADGBE
 
intro:
e|------------------------------|
B|------------------------------|
G|-----5------------------------|
D|-----7---5-------5------------|
A|-------------7---7---575------|
E|---------------------------8--|


Verse 1
e|--------------------------------------------------------------------|
B|--------------------------------------------------------------------|
G|----------2------------2-----------------5--------------------------|
D|----------3------------3-----------------7---------------575--5-----|
A|----------3------------3-----------------7------------------------7-|
E|---1----x-1-------1--x-1--1---3---5----x-5-------5----x-------------|

e|---------------------------------------------------------------|
B|---------------------------------------------------------------|
G|----------2------------2-----------------5---------------------|
D|----------3------------3-----------------7---------------------|
A|----------3------------3-----------------7-------3---2---0-----|
E|---1----x-1-------1--x-1--1---3---5----x-5-------------------3-|
-
e|---------------------------------------------------------------|
B|---------------------------------------------------------------|
G|----------2------------2-----------------5---------------------|
D|----------3------------3-----------------7---------------------|
A|----------3------------3-----------------7-------0--2--3--7----|
E|---1----x-1-------1--x-1--1---3---5----x-5---------------------|

e|---------------------------------------------------------------|
B|---------------------------------------------------------------|
G|----------2------------2-----------------5--------------5------|
D|----------3------------3-----------------7--------------7------|
A|----------3------------3-----------------7--------------7------|
E|---1----x-1-------1--x-1--1---3---5----x-5-------5----x-5------|

e|---------------------------------------------------------------|
B|---------------------------------------------------------------|
G|----------2------------2-----------------5---------------------|
D|----------3------------3-----------------7---------------------|
A|----------3------------3-----------------7-------3--2--0-------|
E|---1----x-1-------1--x-1--1---3---5----x-5----------------3----|
                                             buildup 
e|-------------------------------------------------------------|
B|-------------------------------------------------1--3--5--8--|
G|----------2------------2-----------------5-------------------|
D|----------3------------3-----------------7-------------------|
A|----------3------------3-----------------7-------0--2--3--7--|
E|---1----x-1-------1--x-1--1---3---5----x-5-------------------|

chorus
e|--5------------10-------------12-------------|
B|--6------------12-------------13-------------|
G|--7------------12-------------9--------------| x4
D|--7------------12----------------------------|
A|--5------------10----------------------------|
E|---------------------------------------------|

(in the 2 verse there is a solo played over guitar 1 but i want to get this tab out on a single guitar so 
just improvise. do whatever you want, just make sure you never go out of sync.)
verse 2
e|------------------------------------------------------------|
B|------------------------------------------------------------|
G|----------2------------2-----------------5------------------| x6
D|----------3------------3-----------------7------------------| 
A|----------3------------3-----------------7------------------|
E|---1----x-1-------1--x-1--1---3---5----x-5------------------|


chorus
e|--5------------10-------------12-------------|
B|--6------------12-------------13-------------|
G|--7------------12-------------9--------------| x4
D|--7------------12----------------------------|
A|--5------------10----------------------------|
E|---------------------------------------------|

instrumental + him doing sounds
e|----5-------------------------------------------------------|
B|----6-------------------------------------------------------|
G|----7------------------------------5------------------------|
D|----7------------------------------7------------------------|   x2
A|----5------------------------------7------------------------|
E|-----------------------------------5------------------------|

Outro (i think i don't know what to call this part, please tell me in the comments,)
e|--5-----x------10------x------12-----x--------10-10-10-10-8-8-8-|
B|--6-----x------12------x------13-----x--------------------------|
G|--7---7-x------12---12-x------9----9-x--------------------------|
D|--7---7-x------12---10-x----------------------------------------|
A|--5---5-x------10---10-x----------------------------------------|
E|----------------------------------------------------------------|

e|--5-----x------10------x------12-----10---12--15|
B|--6-----x------12------x------13-----x----------|
G|--7---7-x------12---12-x------9----9-x----------|
D|--7---7-x------12---10-x------------------------|
A|--5---5-x------10---10-x------------------------|
E|------------------------------------------------|


e|--------10---8--------10---12-------------8---7|
B|---------------10---8---------10---------------|
G|-----------------------------------------------|
D|-----------------------------------------------|
A|-----------------------------------------------|
E|-----------------------------------------------|

e|--------10---8--------10---12-------------8---12|
B|---------------10---8---------10----------------|
G|------------------------------------------------|
D|------------------------------------------------|
A|------------------------------------------------|
E|------------------------------------------------|

e|-------10--8---------10--12-------------8---7|
B|--------------10--8----------10--------------|
G|---------------------------------------------|
D|---------------------------------------------|
A|---------------------------------------------|
E|---------------------------------------------|

e|-------10--8---------10--12-------------8---12----9|
B|--------------10--8----------10--------------------|
G|---------------------------------------------------|
D|---------------------------------------------------|
A|---------------------------------------------------|
E|---------------------------------------------------|


i'm all ears if you have any suggestions or corrections. just go down in the comments and tell me, thanks.

************************************

| /   slide up
| \   slide down
| h   hammer-on
| p   pull-off
| ~   vibrato
| +   harmonic
| x   Mute note
| b   Bend
| pb  Pre-bend
| br  Bend release
| pbr Pre-bend release
| brb Bend release bend

************************************
Добавлено: 21.12.2015
Другие материалы по этой песне:
  • Аккорды и текст

Страница создана 21.12.2015
http://primanota.ru/uni-stefson/lamb-chords.htm
Привет, Гость.
Предлагаем пройти революционный курс по гитаре.
Подарок от PrimaNota.Ru, забирай!