PrimaNota.ru - самый крупный в мире бесплатный архив песенных текстов, аккордов, табулатур и нот


ưng Hoàng Phúc - Căn Gác Trống - таба, видео

Регистрация Запомнить меня
Войти через:  Facebook Google Twitter Vk Yandex Mail.ru

ưng Hoàng Phúc - Căn Gác Trống - таба, видео

Печатать
Просмотров: 102
-------------------------------------------------------------------------------
                            Căn Gác Trống - Ưng Hoàng Phúc
-------------------------------------------------------------------------------
Tabbed by: Noo Mars
E-mail: huynhquocdat@hotmail.com

Tuning:

e|-------------------------5+7---5---x---------------5+7----5------------------|
B|--------------------5----5-----5---x----------5-----------5------------------|
G|----------------5------------------x------5----------------------------------|
D|-----------------------------------x-----------------------------------------|
A|-----7→1--0------------------------x-----------------------------------------|
E|-----------------------------------------------------------------------------|

e|-----3+0----1-------------1+3--1--------0+1----3--------------7~-----3~------|
B|--------------------3-----3----3------------------------0--------------------|
G|----------------2-----------------------------------0------------------------|
D|------------0----------------------------------------------------------------|
A|-----------------------------------------------------------------------------|
E|-----------------------------------------------------------------------------|

e|--------------0--------------------3-----------------------------------------|
B|--0-----------1--------------------3-----------------------------------------|
G|---------2---------0-----------4--------4^0----------------------------------|
D|-----3-------------------3→5-------------------------------------------------|
A|-----------------------------------------------------------------------------|
E|-----------------------------------------------------------------------------|




************************************

| →   slide up
| \   slide down
| h   hammer-on
| p   pull-off
| ~   vibrato
| +   harmonic
| x   Mute note
| b   Bend
| pb  Pre-bend
| br  Bend release
| pbr Pre-bend release
| brb Bend release bend

************************************
Добавлено: 31.07.2015
Другие материалы по этой песне:
  • Аккорды и текст

Страница создана 31.07.2015
http://primanota.ru/ung-hoang-phuc/can-gac-trong-chords.htm
Привет, Гость.
Предлагаем пройти революционный курс по гитаре.
Подарок от PrimaNota.Ru, забирай!