PrimaNota.ru - самый крупный в мире бесплатный архив песенных текстов, аккордов, табулатур и нот


Uneven Structure - Quittance - таба, видео

Регистрация Запомнить меня
Войти через:  Facebook Google Twitter Vk Yandex Mail.ru

Uneven Structure - Quittance - таба, видео

Печатать
Просмотров: 91
Авторы музыки: Aurélien Pereira, Igor Omodei
Авторы текста: Matthieu Romarin, Igor Omodei
Key: G#/Ab minor

I don't have a 7 string so it's standard on a 6 string

"A regretful instant breaks"
e|-|-------------6-------------------7----------------------------------------------|-|
B|-|-------7---7---7---7-------9---9---9---9--------------4-----------------4-------|-|
G|-|---------8-------8-----------9-------9----------4---4---4---4-----4---4---4---4-|-|
D|-|-----8-------------------9------------------------6-------6---------6-------6---|-|
A|-|-6~~-----------------7~~----------------------6-----------------6---------------|-|
E|-|------------------------------------------4~~-----------------------------------|-|

16 beats per section of 4
e|-|-----------------------------------------|-|
B|-|-----------------------------------------|-|
G|-|------9999-------------------------------|-|
D|-|-9999------6666-4444-2222-9888-6666------|-|
A|-|-----------------------------------------|-|
E|-|------------------------------------4444-|-|

"This is not..."         Harmony
e|-|---------------------|-|------------------|-|
B|-|---------------------|-|----------9^-7----|-|
G|-|---------------------|-|-88------6-----68-|-|
D|-|---------------------|-|----969-8---------|-|
A|-|---------------------|-|------------------|-|
E|-|-4444-4444-0000-2222-|-|------------------|-|

Riff
e|-|----------------|--------------------------|-|
B|-|----------------|--------------------------|-|
G|-|----------------|--------------------------|-|
D|-|----------------|--------------------------|-|
A|-|----------------|----------7-6-4h6p4-4h7---|-|
E|-|-4-44-4h7-6h7p4-|-4-44-744---------------6-|-|

"This discrepancy..."
e|-|---------------------------|-|
B|-|---------------------------|-|
G|-|---------------------------|-|
D|-|---------------------------|-|
A|-|-------------7-6---6h7p6---|-|
E|-|-4-7-4-6-4-6-----7-------7-|-|

"Mislead..."
e|-|--------------------------|-|
B|-|--------------------------|-|
G|-|--------------------------|-|
D|-|----------------4444-6666-|-|
A|-|------4444-7777-----------|-|
E|-|-4444---------------------|-|

"I demand redemption..."
Riff

"Am I allowed?.."
e|-|------------------|------------------|-|
B|-|------------------|------------------|-|
G|-|------------------|------------------|-|
D|-|------------------|------------------|-|
A|-|---6h7-77-77-7777-|---2p1-11-11-1111-|-|
E|-|-4----------------|-0----------------|-|

e|-|--------------------------------|--------------------------------|-|
B|-|--------------------------------|--------------------------------|-|
G|-|--------------------------------|--------------------------------|-|
D|-|--------------------------------|--------------------------------|-|
A|-|-6h7-7-9^-7-6-7-7h9-7-6-7-6-----|--------------------------------|-|
E|-|----------------------------7\4-|-6h7-7-9^-7-6-7-7h9-7-6-7-6-6\2-|-|

Riff

A regretful instant breaks
This is not the road leading to fullness
This is not what I wanted to reach
This is not the place I belong to
This is not where I was supposed to land
This is not the aim of this routine
This is not why I did build this
This is not a conclusion
This is not who I was meant to be

Why this discrepancy
A cause lost into fraudulent behaviors
Depicting a strong weakness of the self
All integrity shattered in million pieces

Mislead into temptation
This is not a denial, this is the true face of resentment

I demand redemption for all my transgressions
Prepared to strip myself down to the gist
A deafening silence slants over this desert
The burn of these distresses is extinct
I feel now freed from that perturbed shallowness 
Ready to take one last impulse and lift off

I am aloud in the escape
Allowed to leave this place.
Добавлено: 21.06.2016
Вам также может быть интересно:
Другие материалы по этой песне:
  • Аккорды и текст

Страница создана 21.06.2016
http://primanota.ru/uneven-structure/quittance-chords.htm
Привет, Гость.
Предлагаем пройти революционный курс по гитаре.
Подарок от PrimaNota.Ru, забирай!