PrimaNota.ru - самый крупный в мире бесплатный архив песенных текстов, аккордов, табулатур и нот


Unearth - Zombie Autopilot - текст песни, таба, бас-таба, видео

Регистрация Запомнить меня
Войти через:  Facebook Google Twitter Vk Yandex Mail.ru

Unearth - Zombie Autopilot - текст песни, таба, бас-таба, видео

Печатать
Просмотров: 276
Title: Zombie Autopilot
Artist: Unearth
Album: The Oncoming Storm

Instrument: 6 String Guitar

Tabbed by: Brian Tassone (briantasson3@netscape.net)

Tuning: Select a Tuning... (     )

Standard tuning (E A D G B E), but the real song uses two 7 strings, but the solo
doesn't use the low B. My first tab so e-mail me if you see anything wrong with it.

Key:

* = harmonics
/ = slide up
\ = slide down
b = bend
bb = quick double bend
h*17*p = during bend, hit 17 and bend a little with index/middle finger
with your RIGHT hand, thats just how its played

|-------------------------------------------------------------------||
|-------------------------------------------------------------------||
|-------------------------------------------------------------------||
|----9-11h12p11p9-9-11h12p11p9---9-11h12p11p9--14-12-11~------------||
|---9------------9-------------10------------10---------------------||
|-------------------------------------------------------------------||

|-------------------------------------------------------------------||
|---------------------------------------------------------------12\-||
|---------------------------------------11--11-12-11-12-14-12-14----||
|---------------11--11-12-11-12-14-12-14--14------------------------||
|-11-12-14-12-14--14------------------------------------------------||
|-------------------------------------------------------------------||


 |-14-15-12-14--14--------------------------------------------------||
 |------------15---10h12p10~----------------------------------------||
 |-------------------------------------------------------------11---||
 |---------------------------------------------------12h14p12-------||
 |----------------------------------------------14-14--------14-----||
 |------------------------------------------------------------------||


|-------------------------------------------------------------------||
|-------------------------------------------------------------------||
|----------------11-----------------11----------------11------------||
|------12h14p12-----------12h14p12----------12h14p12----------------||
|-14-14--------14----14-14--------14---14-14--------14--------------||
|-------------------------------------------------------------------||

|-------------------------------------------------------------------||
|--------------------------------------------------------10---------||
|-7h9p7h9-6h8p6h8-4h6p4h6-6h7p6-6-7-9-7-6-6----------------12-11-9--||
|----------------------------------------7-7/9~--9-11-12----------9-||
|-------------------------------------------------------------------||
|-------------------------------------------------------------------||

|-----------------------12*-12*-12*-12*-----------------------------||
|--------10----------12*--------------------------------------------||
|----------12-11-9-9b-------------------9bb-------------------------||
|-9-11-12-----------------------------------------------------------||
|-------------------------------------------------------------------||
|-------------------------------------------------------------------||

|-7h10-7h10-7h10-7h10-7h10-7h10-7h10-7h10-5/7b---/19----------------||
|---------------------------------------------------/16\------------||
|-------------------------------------------------------------------||
|-------------------------------------------------------------------||
|-------------------------------------------------------------------||
|-------------------------------------------------------------------||

|-14-17-14--14-----12h14b-13b-h*17*p-12h13--------------------------||
|---------17--17-15-------------------------------------------------||
|-------------------------------------------------------------------||
|-------------------------------------------------------------------||
|-------------------------------------------------------------------||
|-------------------------------------------------------------------||

|-------------------------------------------------------------------||
|-------------------------------------------------------------------||
|---------------------------9-9-11-11p9-----------------------------||
|--9-9-11h12p11-11-7/12~-12------------12-7~-9\---------------------||
|-------------------------------------------------------------------||
|-------------------------------------------------------------------||

|--------------12--12-14-12-14-15-14-15-17-15-17-18b19-19~----------||
|--12~-12-14-15--15-------------------------------------------------||
|-------------------------------------------------------------------||
|-------------------------------------------------------------------||
|-------------------------------------------------------------------||
|-------------------------------------------------------------------||
Добавлено: 25.03.2012
Другие материалы по этой песне:

Страница создана 08.03.2012
http://primanota.ru/unearth/zombie-autopilot-chords.htm
Привет, Гость.
Предлагаем пройти революционный курс по гитаре.
Подарок от PrimaNota.Ru, забирай!