PrimaNota.ru - самый крупный в мире бесплатный архив песенных текстов, аккордов, табулатур и нот


Unearth - We Are Not Anonymous - таба, видео

Регистрация Запомнить меня
Войти через:  Facebook Google Twitter Vk Yandex Mail.ru

Unearth - We Are Not Anonymous - таба, видео

Печатать
Просмотров: 105
No has posted any of this song, so here's the intro.

Tuning: B F# B E G# C#

~ Let ring
b bend
. palm mute

|---------------------------------------|
|---------------------------------------|
|---------------------------------------|
|---------------------------------7~~2~~|
|2-2-2-2-2--2-2-2-2-2--5-5-5-5-5--7~~2~~|
|2-2-2-2-2--2-2-2-2-2--3-3-3-3-3--5~~0~~|
 . . . . .  . . . . .  . . . . .

Solo at the start of the song(x2)
|------------------------------------------------|
|------------------------------------------------|
|------------------------11----------------------|
|---------11-12-11-12-14----14-12-11-12-11-------|
|14-12-14----------------------------------14-12-|
|------------------------------------------------|

|------------------------------------------------|
|------------------------------------------------|
|------------------------12-11-------11----------|
|---------11-12-11-12-14-------14-12----14-12-11-|
|14-12-14----------------------------------------|
|------------------------------------------------|

|------------------------------------------------|
|------------------------------------------------|
|------------------------11----------------------|
|---------11-12-11-12-14----14-12-11-12-11-------|
|14-12-14----------------------------------14-12-|
|------------------------------------------------|

|------------------------------------------------|
|------------------------------------------------|
|------------------------------------------------|
|14--------12--------11--------------------------|
|--12-12-12--12-12-12--12-12-12-14-12-12-12------|
|------------------------------------------------|

Interlude
|-------------------------------------------------------------------------|
|--12-10----10-12-------10---------------15-14-12-14-15--12-14----10-12---|
|--------12-------11-12----9~~11-12-9------------------14------11-------11|
|9------------------------------------12----------------------------------|
|-------------------------------------------------------------------------|
|-------------------------------------------------------------------------|

|-------------------------------------------------------------------------|
|--12-10----10-12-------10---------------15-14-12-14-15-------------------|
|--------12-------11-12----9~~11-12-9-------------------14b-12-11--11-----|
|9------------------------------------12-------------------------14--14-12|
|-------------------------------------------------------------------------|
|-------------------------------------------------------------------------|

Cheers!

--Daniel T.
Добавлено: 05.06.2013
Другие материалы по этой песне:

Страница создана 07.04.2012
http://primanota.ru/unearth/we-are-not-anonymous-chords.htm
Привет, Гость.
Предлагаем пройти революционный курс по гитаре.
Подарок от PrimaNota.Ru, забирай!