PrimaNota.ru - самый крупный в мире бесплатный архив песенных текстов, аккордов, табулатур и нот


Unearth - The Fallen - таба, видео

Регистрация Запомнить меня
Войти через:  Facebook Google Twitter Vk Yandex Mail.ru

Unearth - The Fallen - таба, видео

Печатать
Просмотров: 136
Уроки эстрадного вокала в Санкт-Петербурге
Tabbed by: Joshua Garcia (joshuag523@aol.com)

Tabs for the solo: The Fallen by Unearth
Please rate and let me know if you have any corrections. Thank you.


Tuning: 7-String Stanadard (B E A D G B E)


Guitar 1:
E||----------------------------------------------------------------------------------------------|
B||---------------------------------------/15--14h15p14------------------------------------------|
G||--11/16~--16\14--------11-9-------------------------16-14-------------------------------------|
D||----------------12\9-------------------------------------16-17-16-14-16-14--------------------|
A||---------------------9------12-9/12\9-------------------------------------17-14-16b17r16-14-12|
E||----------------------------------------------------------------------------------------------|
B||----------------------------------------------------------------------------------------------|


E||----------------------------------------------------------------------------------------------|
B||----------------------------------------------------------------------------------------------|
G||----------------------------------------------------------------------------------------------|
D||--------------------------------------------------------------12-14-16-14-12-14-16-17-14-16-17|
A||------------------------------------12-14-16-14-16-14-12-14-16--------------------------------|
E||--14-15-14-12--12-14-15-14-12-14-15-----------------------------------------------------------|
B||-------------15-------------------------------------------------------------------------------|


E||----------------------------------------------------------------------------------------------|
B||--15-12-14-12----12-15-12-14-12----12-15-12-14-12--17-12-15-12----12-17-12-17b19~--r17-15-17~-|
G||--------------14----------------14-----------------------------14-----------------------------|
D||----------------------------------------------------------------------------------------------|
A||----------------------------------------------------------------------------------------------|
E||----------------------------------------------------------------------------------------------|
B||----------------------------------------------------------------------------------------------|




Tablature Legend
----------------
 h   - hammer-on
 p   - pull-off
 b   - bend
 r   - release bend
 *   - pinch harmonic
 '   - natural harmonic
 x   - mute note
 .   - palm mute
 /   - slide down
 \   - slide up
Добавлено: 27.07.2013
Вам также может быть интересно:
Другие материалы по этой песне:
  • Аккорды и текст

Страница создана 27.07.2013
http://primanota.ru/unearth/the-fallen-chords.htm
Привет, Гость.
Предлагаем пройти революционный курс по гитаре.
Подарок от PrimaNota.Ru, забирай!