PrimaNota.ru - самый крупный в мире бесплатный архив песенных текстов, аккордов, табулатур и нот


Unearth - Ruination Of The Lost - таба, видео

Регистрация Запомнить меня
Войти через:  Facebook Google Twitter Vk Yandex Mail.ru

Unearth - Ruination Of The Lost - таба, видео

Печатать
Просмотров: 80
Tabbed by: Joshua Garcia (joshuag523@aol.com)

Tabs for the song: Ruination of the Lost by Unearth
Please rate and let me know if you have any corrections. Thank you.


* To see my YouTube cover of this song, go here:
http://www.youtube.com/watch?v=Ap8aYRBjYl4 *


Tuning: Custom 7-String Tuning (C E A D G B E)
        Or 7-String Standard (B E A D G B E) with capo on 1st fret


Intro
Guitar 1:
E||-------------------------------------------------------------------------|
B||-------------------------------------------------------------------------|
G||-------------------------------------------------------------------------|
D||--131313131313-121212121212-10101010-131313131313-121212121212-10101010--|
A||--x-x-x-x-x-x--x-x-x-x-x-x--x-x-x-x--x-x-x-x-x-x--x-x-x-x-x-x--x-x-x-x---|
E||--111111111111-101010101010-8-8-8-8--111111111111-101010101010-8-8-8-8---|
C||-------------------------------------------------------------------------|


E||-------------------------------------|
B||-------------------------------------|
G||-------------------------------------|
D||--8888888888888888-9999999999999999--|
A||--xxxxxxxxxxxxxxxx-xxxxxxxxxxxxxxxx--|
E||--6666666666666666-7777777777777777--|
C||-------------------------------------|


E||-------------------------------------------------------------------------|
B||-------------------------------------------------------------------------|
G||-------------------------------------------------------------------------|
D||--131313131313-121212121212-10101010-131313131313-121212121212-18181818--|
A||--x-x-x-x-x-x--x-x-x-x-x-x--x-x-x-x--x-x-x-x-x-x--x-x-x-x-x-x--x-x-x-x---|
E||--111111111111-101010101010-8-8-8-8--111111111111-101010101010-16161616--|
C||-------------------------------------------------------------------------|


E||----------------------------------------------------|
B||----------------------------------------------------|
G||----------------------------------------------------|
D||--171717171717171717171717171717171717171717171717--|
A||--x-x-x-x-x-x-x-x-x-x-x-x-x-x-x-x-x-x-x-x-x-x-x-x---|
E||--151515151515151515151515151515151515151515151515--|
C||----------------------------------------------------|


Guitar 2:
E||---------------------------------------------------------------------------------------|
B||---------------------------------------------------------------------------------------|
G||---------------------------------------------------------------------------------------|
D||--10101010101010101010101010101010-6666666666666666-8888888888888888-9999999999999999--|
A||--x-x-x-x-x-x-x-x-x-x-x-x-x-x-x-x--xxxxxxxxxxxxxxxx-xxxxxxxxxxxxxxxx-xxxxxxxxxxxxxxxx--| x2
E||--8-8-8-8-8-8-8-8-8-8-8-8-8-8-8-8--4444444444444444-6666666666666666-7777777777777777--|
C||---------------------------------------------------------------------------------------|



Guitar 1:
E||----------------------------------------------------|------------------------------------------|
B||----------------------------------------------------|------------------------------------------|
G||-------------------12/15~--\13-13~--12~--10-10\12~--|------------10/13~--\10-10~---------------|
D||--/10~----10-12-13----------------------------------|---10-12-13------------------13~--12-10~--|
A||----------------------------------------------------|------------------------------------------|
E||----------------------------------------------------|------------------------------------------|
C||----------------------------------------------------|------------------------------------------|
                .  .                                          .  .

E||----------------------------------------------------------------|----------|
B||-----------------------------15~-----16~-----18b20~---r181618~--|----------|
G||-----------12/15~--\13-13~--------13----------------------------|----------|
D||--10-12-13------------------------------------------------------|----------|
A||----------------------------------------------------------------|----------|
E||----------------------------------------------------------------|--//15\\--|
C||----------------------------------------------------------------|--//15\\--|
        .  .


Guitar 2:
E||----------------------------------------------------|------------------------------------------|
B||----------------------------------------------------|------------------------------------------|
G||-------------------15/19~--\17-17~--15~--13-13\15~--|------------13/15~--\13-13~---------------|
D||--/13~----13-15-17----------------------------------|---13-15-17------------------17~--15-13~--|
A||----------------------------------------------------|------------------------------------------|
E||----------------------------------------------------|------------------------------------------|
C||----------------------------------------------------|------------------------------------------|
                .  .                                          .  .


E||----------------------------------------------------------------|----------|
B||-----------------------------18~-----20~-----18b20~---r181618~--|----------|
G||-----------15/19~--\17-17~--------17----------------------------|----------|
D||--13-15-17------------------------------------------------------|----------|
A||----------------------------------------------------------------|----------|
E||----------------------------------------------------------------|--//15\\--|
C||----------------------------------------------------------------|--//15\\--|
        .  .


Guitar 3 (Dub):
E||-------------------------------------------------------------------------|
B||-------------------------------------------------------------------------|
G||-------------------------------------------------------------------------|
D||--131313131313-121212121212-10101010-131313131313-121212121212-10101010--|
A||--x-x-x-x-x-x--x-x-x-x-x-x--x-x-x-x--x-x-x-x-x-x--x-x-x-x-x-x--x-x-x-x---|
E||--111111111111-101010101010-8-8-8-8--111111111111-101010101010-8-8-8-8---|
C||-------------------------------------------------------------------------|


E||-------------------------------------|
B||-------------------------------------|
G||-------------------------------------|
D||--8888888888888888-9999999999999999--|
A||--xxxxxxxxxxxxxxxx-xxxxxxxxxxxxxxxx--|
E||--6666666666666666-7777777777777777--|
C||-------------------------------------|


E||-------------------------------------------------------------------------|
B||-------------------------------------------------------------------------|
G||-------------------------------------------------------------------------|
D||--131313131313-121212121212-10101010-131313131313-121212121212-18181818--|
A||--x-x-x-x-x-x--x-x-x-x-x-x--x-x-x-x--x-x-x-x-x-x--x-x-x-x-x-x--x-x-x-x---|
E||--111111111111-101010101010-8-8-8-8--111111111111-101010101010-16161616--|
C||-------------------------------------------------------------------------|


E||----------------------------------------------------|
B||----------------------------------------------------|
G||----------------------------------------------------|
D||--171717171717171717171717171717171717171717171717--|
A||--x-x-x-x-x-x-x-x-x-x-x-x-x-x-x-x-x-x-x-x-x-x-x-x---|
E||--151515151515151515151515151515151515151515151515--|
C||----------------------------------------------------|


Guitar 4 (Dub):
E||---------------------------------------------------------------------------------------|
B||---------------------------------------------------------------------------------------|
G||---------------------------------------------------------------------------------------|
D||--10101010101010101010101010101010-6666666666666666-8888888888888888-9999999999999999--|
A||--x-x-x-x-x-x-x-x-x-x-x-x-x-x-x-x--xxxxxxxxxxxxxxxx-xxxxxxxxxxxxxxxx-xxxxxxxxxxxxxxxx--| x2
E||--8-8-8-8-8-8-8-8-8-8-8-8-8-8-8-8--4444444444444444-6666666666666666-7777777777777777--|
C||---------------------------------------------------------------------------------------|



Pre-Verse
Guitar 1:
E||------------------------------------------------------|
B||------------------------------------------------------|
G||------------------------------------------------------|
D||------------------------------------------------------|
A||-------------------8p7--7------------------3----------|
E||------6h8--6h8-8-------------6-9-8-6------------------|
C||--0000---00---0--00---0---00---------3-5-6---6-5-3-5--|
     ....   ..   .  ..   .   ..         . . .   . . . .

E||-------------------------------------------------------|
B||-------------------------------------------------------|
G||-------------------------------------------------------|
D||------------------4-----6------------------------------| x2
A||--------------------3/5---5---5------------------------|
E||------6h8--6h8-8------------6---6----------------------|
C||--0000---00---0-------------------8-7-5-8-7-5-4-6-5-4--|
     ....   ..   .     .       .     . . . . . . . . . .


Guitar 2:
E||-----|------|-----|-------------|
B||-----|------|-----|-------------|
G||-----|------|-----|-------------|
D||-----|------|-----|-------------|
A||-----|--3~--|-----|--3~---------|
E||--3--|--3~--|--3--|--3~------3--|
C||--0--|--0~--|--0--|--0~------0--|
     .            .             .




Verse
Guitar 1/2:
E||------------------------------------------------------|
B||------------------------------------------------------|
G||------------------------------------------------------|
D||------------------------------------------------------|
A||-------------------8p7--7------------------3----------|
E||------6h8--6h8-8-------------6-9-8-6------------------|
C||--0000---00---0--00---0---00---------3-5-6---6-5-3-5--|
     ....   ..   .  ..   .   ..         . . .   . . . .

E||-------------------------------------------------------|
B||-------------------------------------------------------|
G||-------------------------------------------------------|
D||------------------4-----6------------------------------| x2
A||--------------------3/5---5---5------------------------|
E||------6h8--6h8-8------------6---6----------------------|
C||--0000---00---0-------------------8-7-5-8-7-5-4-6-5-4--|
     ....   ..   .     .       .     . . . . . . . . . .



Pre-Chorus
Guitar 1/2:                                   (1:)
E||--------------------------------------------------------------|
B||--------------------------------------------------------------|
G||--------------------------------------------------------------|
D||--------------------------------------------------------------|
A||------------------------------------------------7---------7~--|
E||--333--333--3-3-3-3-3-3-3-3-3-3--333--333-3-3-----9---8h9-----|
C||--000--000--0-0-0-0-0-0-0-0-0-0--000--000-0-0-0-----0---------|
     ...  ...  . . . . . . . . . .  ...  ... . .       .

                                 (1:)
E||----------------------------------------------------------------------------|
B||----------------------------------------------------------------------------|
G||--------------------------------------------------------------9h10p9--------|
D||-----------------------------------------------8----8-11-8-11--------11-10--| x2
A||-------------------------------------7-10-7-10---10-------------------------|
E||--333--333--3-3-3-3-3-3-3-3-3-3--8-9----------------------------------------|
C||--000--000--0-0-0-0-0-0-0-0-0-0---------------------------------------------|
     ...  ...  . . . . . . . . . .



Chorus
Guitar 1:
E||-------------------------------------------------------------------------|
B||-------------------------------------------------------------------------|
G||-------------------------------------------------------------------------|
D||--131313131313-121212121212-10101010-131313131313-121212121212-10101010--|
A||--x-x-x-x-x-x--x-x-x-x-x-x--x-x-x-x--x-x-x-x-x-x--x-x-x-x-x-x--x-x-x-x---|
E||--111111111111-101010101010-8-8-8-8--111111111111-101010101010-8-8-8-8---|
C||-------------------------------------------------------------------------|


E||-------------------------------------|
B||-------------------------------------|
G||-------------------------------------|
D||--8888888888888888-9999999999999999--|
A||--xxxxxxxxxxxxxxxx-xxxxxxxxxxxxxxxx--|
E||--6666666666666666-7777777777777777--|
C||-------------------------------------|


E||-------------------------------------------------------------------------|
B||-------------------------------------------------------------------------|
G||-------------------------------------------------------------------------|
D||--131313131313-121212121212-10101010-131313131313-121212121212-18181818--|
A||--x-x-x-x-x-x--x-x-x-x-x-x--x-x-x-x--x-x-x-x-x-x--x-x-x-x-x-x--x-x-x-x---|
E||--111111111111-101010101010-8-8-8-8--111111111111-101010101010-16161616--|
C||-------------------------------------------------------------------------|


E||----------------------------------------------------|
B||----------------------------------------------------|
G||----------------------------------------------------|
D||--171717171717171717171717171717171717171717171717--|
A||--x-x-x-x-x-x-x-x-x-x-x-x-x-x-x-x-x-x-x-x-x-x-x-x---|
E||--151515151515151515151515151515151515151515151515--|
C||----------------------------------------------------|


Guitar 2:
E||---------------------------------------------------------------------------------------|
B||---------------------------------------------------------------------------------------|
G||---------------------------------------------------------------------------------------|
D||--10101010101010101010101010101010-6666666666666666-8888888888888888-9999999999999999--|
A||--x-x-x-x-x-x-x-x-x-x-x-x-x-x-x-x--xxxxxxxxxxxxxxxx-xxxxxxxxxxxxxxxx-xxxxxxxxxxxxxxxx--| x2
E||--8-8-8-8-8-8-8-8-8-8-8-8-8-8-8-8--4444444444444444-6666666666666666-7777777777777777--|
C||---------------------------------------------------------------------------------------|



Pre-Verse
Guitar 1:
E||------------------------------------------------------|
B||------------------------------------------------------|
G||------------------------------------------------------|
D||------------------------------------------------------|
A||-------------------8p7--7------------------3----------|
E||------6h8--6h8-8-------------6-9-8-6------------------|
C||--0000---00---0--00---0---00---------3-5-6---6-5-3-5--|
     ....   ..   .  ..   .   ..         . . .   . . . .

E||-------------------------------------------------------|
B||-------------------------------------------------------|
G||-------------------------------------------------------|
D||------------------4-----6------------------------------| x2
A||--------------------3/5---5---5------------------------|
E||------6h8--6h8-8------------6---6----------------------|
C||--0000---00---0-------------------8-7-5-8-7-5-4-6-5-4--|
     ....   ..   .     .       .     . . . . . . . . . .



Pre-Chorus
Guitar 1/2:                                   (1:)
E||--------------------------------------------------------------|
B||--------------------------------------------------------------|
G||--------------------------------------------------------------|
D||--------------------------------------------------------------|
A||------------------------------------------------7---------7~--|
E||--333--333--3-3-3-3-3-3-3-3-3-3--333--333-3-3-----9---8h9-----|
C||--000--000--0-0-0-0-0-0-0-0-0-0--000--000-0-0-0-----0---------|
     ...  ...  . . . . . . . . . .  ...  ... . .       .

                                 (1:)
E||----------------------------------------------------------------------------|
B||----------------------------------------------------------------------------|
G||--------------------------------------------------------------9h10p9--------|
D||-----------------------------------------------8----8-11-8-11--------11-10--| x2
A||-------------------------------------7-10-7-10---10-------------------------|
E||--333--333--3-3-3-3-3-3-3-3-3-3--8-9----------------------------------------|
C||--000--000--0-0-0-0-0-0-0-0-0-0---------------------------------------------|
     ...  ...  . . . . . . . . . .

                                              (1:)
E||--------------------------------------------------------------|
B||--------------------------------------------------------------|
G||--------------------------------------------------------------|
D||--------------------------------------------------------------|
A||------------------------------------------------7---------7~--|
E||--333--333--3-3-3-3-3-3-3-3-3-3--333--333-3-3-----9---8h9-----|
C||--000--000--0-0-0-0-0-0-0-0-0-0--000--000-0-0-0-----0---------|
     ...  ...  . . . . . . . . . .  ...  ... . .       .

                                 (1:)               (1/2:)
E||-----------------------------------------------------------------|
B||-----------------------------------------------------------------|
G||-----------------------------------------------------------------|
D||-----------------------------------------------8-----------------|
A||-------------------------------------7-10-7-10---10--------------|
E||--333--333--3-3-3-3-3-3-3-3-3-3--8-9-----------------//pick////--|
C||--000--000--0-0-0-0-0-0-0-0-0-0----------------------///slide//--|
     ...  ...  . . . . . . . . . .



Chorus
Guitar 1:
E||-------------------------------------------------------------------------|
B||-------------------------------------------------------------------------|
G||-------------------------------------------------------------------------|
D||--131313131313-121212121212-10101010-131313131313-121212121212-10101010--|
A||--x-x-x-x-x-x--x-x-x-x-x-x--x-x-x-x--x-x-x-x-x-x--x-x-x-x-x-x--x-x-x-x---|
E||--111111111111-101010101010-8-8-8-8--111111111111-101010101010-8-8-8-8---|
C||-------------------------------------------------------------------------|


E||-------------------------------------|
B||-------------------------------------|
G||-------------------------------------|
D||--8888888888888888-9999999999999999--|
A||--xxxxxxxxxxxxxxxx-xxxxxxxxxxxxxxxx--|
E||--6666666666666666-7777777777777777--|
C||-------------------------------------|


E||-------------------------------------------------------------------------|
B||-------------------------------------------------------------------------|
G||-------------------------------------------------------------------------|
D||--131313131313-121212121212-10101010-131313131313-121212121212-18181818--|
A||--x-x-x-x-x-x--x-x-x-x-x-x--x-x-x-x--x-x-x-x-x-x--x-x-x-x-x-x--x-x-x-x---|
E||--111111111111-101010101010-8-8-8-8--111111111111-101010101010-16161616--|
C||-------------------------------------------------------------------------|


E||----------------------------------------------------|
B||----------------------------------------------------|
G||----------------------------------------------------|
D||--171717171717171717171717171717171717171717171717--|
A||--x-x-x-x-x-x-x-x-x-x-x-x-x-x-x-x-x-x-x-x-x-x-x-x---|
E||--151515151515151515151515151515151515151515151515--|
C||----------------------------------------------------|


Guitar 2:
E||---------------------------------------------------------------------------------------|
B||---------------------------------------------------------------------------------------|
G||---------------------------------------------------------------------------------------|
D||--10101010101010101010101010101010-6666666666666666-8888888888888888-9999999999999999--|
A||--x-x-x-x-x-x-x-x-x-x-x-x-x-x-x-x--xxxxxxxxxxxxxxxx-xxxxxxxxxxxxxxxx-xxxxxxxxxxxxxxxx--| x2
E||--8-8-8-8-8-8-8-8-8-8-8-8-8-8-8-8--4444444444444444-6666666666666666-7777777777777777--|
C||---------------------------------------------------------------------------------------|



Pre-Solo
Guitar 1:
E||----------------------------------------------------|------------------------------------------|
B||----------------------------------------------------|------------------------------------------|
G||-------------------12/15~--\13-13~--12~--10-10\12~--|------------10/13~--\10-10~---------------|
D||--/10~----10-12-13----------------------------------|---10-12-13------------------13~--12-10~--|
A||----------------------------------------------------|------------------------------------------|
E||----------------------------------------------------|------------------------------------------|
C||----------------------------------------------------|------------------------------------------|
                .  .                                          .  .

E||----------------------------------------------------------------|----------|
B||-----------------------------15~-----16~-----18b20~---r181618~--|----------|
G||-----------12/15~--\13-13~--------13----------------------------|----------|
D||--10-12-13------------------------------------------------------|----------|
A||----------------------------------------------------------------|----------|
E||----------------------------------------------------------------|--//15\\--|
C||----------------------------------------------------------------|--//15\\--|
        .  .


Guitar 2:
E||----------------------------------------------------|------------------------------------------|
B||----------------------------------------------------|------------------------------------------|
G||-------------------15/19~--\17-17~--15~--13-13\15~--|------------13/15~--\13-13~---------------|
D||--/13~----13-15-17----------------------------------|---13-15-17------------------17~--15-13~--|
A||----------------------------------------------------|------------------------------------------|
E||----------------------------------------------------|------------------------------------------|
C||----------------------------------------------------|------------------------------------------|
                .  .                                          .  .


E||----------------------------------------------------------------|----------|
B||-----------------------------18~-----20~-----18b20~---r181618~--|----------|
G||-----------15/19~--\17-17~--------17----------------------------|----------|
D||--13-15-17------------------------------------------------------|----------|
A||----------------------------------------------------------------|----------|
E||----------------------------------------------------------------|--//15\\--|
C||----------------------------------------------------------------|--//15\\--|
        .  .


Guitar 3:
E||-------------------------------------------------------------------|
B||-------------------------------------------------------------------|
G||-------------------------------------------------------------------|
D||-------------------------------------------------------------------|
A||------------------6-6-6-6-6-6-6-6-----------------5-5-5-5-5-5-5-5--|
E||--3-3-3-3-3-3-3-3-4-4-4-4-4-4-4-4-6-6-6-6-6-6-6-6-3-3-3-3-3-3-3-3--|
C||--0-0-0-0-0-0-0-0-----------------3-3-3-3-3-3-3-3------------------|
       . . .   . . .   . . .   . . .   . . .   . . .   . . .   . . .

E||---------------------------------------------------------------------------|----------|
B||---------------------------------------------------------------------------|----------|
G||---------------------------------------------------------------------------|----------|
D||---------------------------------------------------------------------------|----------|
A||------------------6-6-6-6-6-6-6-6-8-8-8-8-8-8-8-8-10-10-10-10-10-10-10-10--|----------|
E||--3-3-3-3-3-3-3-3-4-4-4-4-4-4-4-4-6-6-6-6-6-6-6-6-7--7--7--7--7--7--7--7---|--//15\\--|
C||--0-0-0-0-0-0-0-0----------------------------------------------------------|--//15\\--|
       . . .   . . .   . . .   . . .



Solo
Guitar 1:
E||-------------------------------------------------------15----------15----------18-15----------|
B||----------------------------------------------16----16----16----16----16-18-16------16--------|
G||----------------------------15----15-17-15-17----17----------17-----------------------15------|
D||--------------------17---17----17-------------------------------------------------------17----|
A||--15----15-18-15-18---18------------------------------------------------------------------18--|
E||-----15---------------------------------------------------------------------------------------|
C||----------------------------------------------------------------------------------------------|


E||---------------------------------------------------------------------|
B||--------------16/18\16-15---------16--*18b-20--r18---16-15---16------|
G||-----------17-------------17~------------------------------------17--|
D||--------17-----------------------------------------------------------|
A||--15-18--------------------------------------------------------------|
E||---------------------------------------------------------------------|
C||---------------------------------------------------------------------|


E||--15-16-15-13--------------------------------------------------------------------|
B||--------------16-15-16-15-13-15-13-----------------------------------------------|
G||-----------------------------------15-17-15-13-15-13----13-----------------------|
D||-----------------------------------------------------17----17-15-17-15-13-15-13--|
A||---------------------------------------------------------------------------------|
E||---------------------------------------------------------------------------------|
C||---------------------------------------------------------------------------------|


E||----------------------------------------------------------------------------|
B||----------------------------------------------------------------------------|
G||------------------------------------------17-21-17--------------------------|
D||---------------------17-19-20-19-17-19-20----------20-19-17-----------------|
A||--/17-19-20-17-19-20----------------------------------------20-19-20-19-17--|
E||----------------------------------------------------------------------------|
C||----------------------------------------------------------------------------|


     T        T        T        T        T        T        T        T
E||---------------------------------------------------------------------------|
B||---------------------------------------------------------------------------|
G||--20-12h15-22-12h15-20-12h15-22-12h15-24-12h15-22-12h15-20-12h15-22-12h15--|
D||---------------------------------------------------------------------------|
A||---------------------------------------------------------------------------|
E||---------------------------------------------------------------------------|
C||---------------------------------------------------------------------------|


E||-----------------------151515-161616-181818-18b20-r18-15------|
B||--151515-161616-181818-----------------------------------16~--|
G||--------------------------------------------------------------|
D||--------------------------------------------------------------|
A||--------------------------------------------------------------|
E||--------------------------------------------------------------|
C||--------------------------------------------------------------|


Guitar 2:
E||------|------|------|------|------|------|------|-------|
B||------|------|------|------|------|------|------|-------|
G||------|------|------|------|------|------|------|-------|
D||------|------|------|------|------|------|------|-------|
A||------|--6~--|------|--5~--|------|--6~--|--8~--|--10~--|
E||--3~--|--4~--|--6~--|--3~--|--3~--|--4~--|--6~--|--7~---|
C||--0~--|------|--3~--|------|--0~--|------|------|-------|



Guitar 1:
E||--15-11----------11-15-11-13-11----11--------------------------------------------------|
B||--------13----13----------------15----13-15-12-13---------------13----15----16----16~--|
G||-----------12-------------------------------------13~----/13-13----13----13----13------|
D||---------------------------------------------------------------------------------------|
A||---------------------------------------------------------------------------------------|
E||---------------------------------------------------------------------------------------|
C||---------------------------------------------------------------------------------------|
                                                             .  .     .     .     .


     T     T     T         T     T     T         T     T     T         T     T     T
E||----------------------------------------------------------------------------------------------|
B||--20p16-20p16-20p16p13------------------------------------------------------------------------|
G||------------------------19p15-19p15-19p15p12--------------------------------------------------|
D||----------------------------------------------20p15-20p15-20p15p13----------------------------|
A||--------------------------------------------------------------------20p15-20p15-20p15p13------|
E||-----------------------------------------------------------------------------------------15~--|
C||----------------------------------------------------------------------------------------------|


E||--11----------------------11----13----11----------15-11-13-11----11------------|
B||-----13----------------13----13----13----13----13-------------15----13-15------|
G||--------12----------12----------------------12----------------------------12~--|
D||-----------13----13------------------------------------------------------------|
A||--------------15---------------------------------------------------------------|
E||-------------------------------------------------------------------------------|
C||-------------------------------------------------------------------------------|


E||--18-15----------15-16-15----------15-18-15----------15-16-15----------15-------------|
B||--------16-15-16----------16-15-16----------16-15-16----------16-15-16----16b~~17~~~--|
G||--------------------------------------------------------------------------------------|
D||--------------------------------------------------------------------------------------|
A||--------------------------------------------------------------------------------------|
E||--------------------------------------------------------------------------------------|
C||--------------------------------------------------------------------------------------|


Guitar 2:
E||------------------------------------------------------------------------|
B||------------------------------------------------------------------------|
G||------------------------------------------------------------------------|
D||------------------------------------------------------------------------|
A||------------------------------------------------------------------------|
E||--8888888888888888-----------------------------------33333333-----------|
C||-------------------8888888888888888-3333333333333333----------22222222--|
     ................ ................ ................ ........ ........

E||------------------------------------------------------------------------|
B||------------------------------------------------------------------------|
G||------------------------------------------------------------------------|
D||----------------------------------------------------/8--7--5-4----------|
A||------------------------------------8~--------------/6--5--3-2----------|
E||--8888888888888888------------------6~--------------------------//15\\--|
C||-------------------8888888888888888-----------------------------//15\\--|
     ................ ................


Bridge
Guitar 1:
E||------------------------------------------|
B||--18b20r18b20r18b20r18b20r18b20r18b20~~~--|
G||------------------------------------------|
D||------------------------------------------|
A||------------------------------------------|
E||------------------------------------------|
C||------------------------------------------|


Guitar 2:
E||-------------------------------------------------------------------|
B||-------------------------------------------------------------------|
G||-------------------------------------------------------------------|
D||------------------------------------------------8---7---5---4-4-4--|
A||--3---3---3-----------------------3---3---3-----6---5---3---2-2-2--|
E||--3---3---3-----------------------3---3---3------------------------|
C||--0-0-0-0-0-0-0-0-0-0-0-0-0-0-0-0-0-0-0-0-0-0-0---0---0---0--------|
       .   .   . . . . . . . . . . .   .   .   . .   .   .   .

E||-------------------------------------------------------------------|
B||-------------------------------------------------------------------|
G||-------------------------------------------------------------------|
D||------------------------------------------------8---7---5---4-4-4--|
A||--3---3---3-----------------------3---3---3-----6---5---3---2-2-2--|
E||--3---3---3-----------------------3---3---3------------------------|
C||--0-0-0-0-0-0-0-0-0-0-0-0-0-0-0-0-0-0-0-0-0-0-0---0---0---0--------|
       .   .   . . . . . . . . . . .   .   .   . .   .   .   .


Guitar 1:
E||-------------------------------------------------------------------|
B||-------------------------------------------------------------------|
G||-------------------------------------------------------------------|
D||------------------------------------------------8---7---5---4-4-4--|
A||--3---3---3-----------------------3-3-3-3-3-3-3-6---5---3---2-2-2--|
E||--3---3---3-----------------------3-3-3-3-3-3-3--------------------|
C||--0-0-0-0-0-----------------------0-0-0-0-0-0-0---0---0---0--------|
       .   .                         . . . . . . .   .   .   .



Outro
Guitar 1/2:
E||-------------------------------------------------------------------|
B||-------------------------------------------------------------------|
G||-------------------------------------------------------------------|
D||------------------------------------------------8---7---5---4-4-4--|
A||--3---3---3-----------------------3---3---3-----6---5---3---2-2-2--|
E||--3---3---3-----------------------3---3---3------------------------|
C||--0-0-0-0-0-0-0-0-0-0-0-0-0-0-0-0-0-0-0-0-0-0-0---0---0---0--------|
       .   .   . . . . . . . . . . .   .   .   . .   .   .   .


E||-----------------------------------------------|
B||-----------------------------------------------|
G||-----------------------------------------------|
D||-----------------------------------------------|
A||--3---3---3------------------------------------|
E||--3---3---3------------------------------------|
C||--0-0-0-0-0-0-0--*9~b~~-0--*11~b~~-0--*9~b~~~--|
       .   .   . .         .          .

E||-----------------------------------|
B||-----------------------------------|
G||-----------------------------------|
D||----------------8---7---5---4-4-4--|
A||--3---3---3-----6---5---3---2-2-2--|
E||--3---3---3------------------------|
C||--0-0-0-0-0-0-0---0---0---0--------|
       .   .   . .   .   .   .





Tablature Legend
----------------
 h   - hammer-on
 p   - pull-off
 b   - bend
 r   - release bend
 *   - pinch harmonic
 '   - natural harmonic
 x   - mute note
 .   - palm mute
 /   - slide down
 \   - slide up	
Добавлено: 19.06.2013
Другие материалы по этой песне:

Страница создана 19.06.2013
http://primanota.ru/unearth/ruination-of-the-lost-chords.htm
Привет, Гость.
Предлагаем пройти революционный курс по гитаре.
Подарок от PrimaNota.Ru, забирай!