PrimaNota.ru - самый крупный в мире бесплатный архив песенных текстов, аккордов, табулатур и нот


Unearth - Only The People - текст песни, таба, видео

Регистрация Запомнить меня
Войти через:  Facebook Google Twitter Vk Yandex Mail.ru

Unearth - Only The People - текст песни, таба, видео

Печатать
Просмотров: 80
Уроки эстрадного вокала в Санкт-Петербурге
Band- Unearth
Song- Only The People

7-String(BEADGbe)

Key:
pm = palm mute
h = hammer on
p = pull off
/ = slide

Riff A 0:00-0:22
|---------------------------------------------------------------|
|---------------------------------------------------------------|
|---------------------------------------------------------------|
|---------------------------------------------------------------|
|---------------------------------------------------------------|
|----------5-3-5----------5-3-5---------------------------------|
|-00000000-3-1-3-00000000-3-1-3-000-000-000-000-000-000-000-000-|
pm........       ........       ... ... ... ... ... ... ... ...

Riff B 0:22-0:41
|------------------------------|-----------|---------------|
|------------------------------|-----------|---------------|
|------------------------------|-----------|---------------|
|------------------------------|-----------|-------------7-|
|-9------9-10------10-7--------|-7/9-99999-|-------5-7-8---|
|-7------7-8-------8--5--------|-5/7-77777-|-0-7-8---------|
|---0000------0000------000000-|-----------|---------------|
pm  ....      ....      ......

Riff C 0:41-1:02
|----------------------------------------------|
|----------------------------------------------|
|----------------------------------------------|
|----------------------------------------------|
|-------------------------------------10101010-|
|--------7/8-------7/8-------7/8------8-8-8-8--|
|-00--00-----00-00-----00-00-----0000----------|
pm..  ..     .. ..     .. ..     ....

Riff A 1:02-1:20

Riff D 1:20-1:39
|-------------------------------------------------------------------|
|-------------------------------------------------------------------|
|-----------------6--------------------------6----------------------|
|--------7------7---9-7-------------7------7---9-7------------------|
|-7-9-10---10-9---------10-9-7-9-10---10-9---------10-9-------------|
|-------------------------------------------------------10-8-7-8-10-|
|-------------------------------------------------------8--6-5-6-8--|

Solo(pt:1) 1:39-1:59 I appologize for the solo, Its pretty hard to tab out
|-------------------------------------------|
|-------------------------------------------|
|-000-7-000-8-000-7-------5-----------5-----|
|-------------------5-7-8---8-7-----7---8-7-|
|-------------------------------7-8---------|
|-------------------------------------------|
|-------------------------------------------|
|
|----------------|
|----------------|
|----------------|
|----------------|
|----------------|
|-10-12-13-6-7-4-|
|-8--10-11-4-5-2-|

Solo(pt:2) 1:59-2:20
|-
|-
|-
|-
|-
|-
|-
|
|------------|
|------------|
|------------|
|------------|
|------------|
|-8-10-6-7-3-|
|-6-8--4-5-1-|

Riff F 2:20-2:51
|-----------------------|
|-----------------------|
|-----------------------|
|-----------------------|
|-----------------------|
|-----------------------|
|-0000-0-0-0-0000-0-0-0-|
pm.... . . . .... . . .

Riff G 2:51-3:12
|-----------------------------------------------------------|
|-----------------------------------------------------------|
|-----------------------------------------------------------|
|-----------------------------------------------------------|
|---9-7-9-10-9---9-7-9-10-9---------------------------5-----|
|---7-5-7-8--7---7-5-7-8--7---7---5---7---8---7---7-8---8-7-|
|-0------------0------------0---0---0---0---0---0-----------|
pm.            .            .   .   .   .   .   .

Riff H(1) 3:12-3:22
|-------------------------------------|
|-------------------------------------|
|-------------------------------------|
|-------------------------------------|
|-------------------------------------|
|----------77777777----------88888888-|
|-00000000----------00000000----------|
pm........          ........

Riff H(2) 3:22-3:32
|------------------------------------------------------|
|------------------------------------------------------|
|------------------------------------------------------|
|----------7h9h10p9p7h9h10----------9h10h12p10p9h10h12-|
|------------------------------------------------------|
|-22-2-222-----------------22-2-222--------------------|
|-00-0-000-----------------00-0-000--------------------|
pm.. . ...                 .. . ...

Riff H(3) 3:32-3:46
|---------------------------------------------------|
|---------------------------------------------------|
|---------------------------------------------------|
|---------------------------------------------------|
|---------------------------------------------------|
|-2-2-2-2-2-2-2-2-77777777-2-2-2-2-2-2-2-2-88888888-|
|-0-0-0-0-0-0-0-0----------0-0-0-0-0-0-0-0----------|
pm. . . . . . . .          . . . . . . . .
Добавлено: 21.10.2013
Другие материалы по этой песне:
  • Аккорды и текст

Страница создана 21.10.2013
http://primanota.ru/unearth/only-the-people-chords.htm
Привет, Гость.
Предлагаем пройти революционный курс по гитаре.
Подарок от PrimaNota.Ru, забирай!