PrimaNota.ru - самый крупный в мире бесплатный архив песенных текстов, аккордов, табулатур и нот


Unearth - Cutman - текст песни, таба, видео

Регистрация Запомнить меня
Войти через:  Facebook Google Twitter Vk Yandex Mail.ru

Unearth - Cutman - текст песни, таба, видео

Печатать
Просмотров: 69
 Cutman  - Unearth 
-------------------------------------------------------------------------------
Tabbed by: crazyguitarman8
Email: label4life1@hotmail.com

Tuning:Drop B
I know that Unearth plays all their songs on 7 string guitars, but I decided
to learn how to play this song on a 6 string so I hope this helps a lot of 
you guys out. ENJOY!

Intro X4 (0:00 - 0:25)
Guitars 1 and 2
e|---------------------------------------------------------------------------|
B|---------------------------------------------------------------------------|
G|------5-7-8-7---8-7---5h7--------5-7-8-7-5-1010101088887h8p7---------------|
D|5-7-8---------4------------5-7-8----------------------------8--------------|
A|---------------------------------------------------------------------------|
E|---------------------------------------------------------------------------|
pm                                            ...........

Pre Verse X1 (0:25 - 0:30)
Guitar 1 
e|---------------------------------------------------------------------------|
B|---------------------------------------------------------------------------|
G|---------------------------------------------------------------------------|
D|----------------------------------------------------0----------------------|
A|----5h6----3h5----1h3p1-0----------5h6----3h5----1h30----------------------|
E|0000---0000---0000--------3h5--0000---0000---0000---0----------------------|
pm....   ....   ....             ....   ....   ....   .

Guitar 2 (0:25 - 0:30)
e|---------------------------------------------------------------------------|
B|---------------------------------------------------------------------------|
G|---------------------------------------------------------------------------|
D|0~-------------------------------------------------------------------------|
A|0~-------------------------------------------------------------------------|
E|0~-------------------------------------------------------------------------|

Verse
Guitars 1 and 2 (0:30 - 0:41)
e|---------------------------------------------------------------------------|
B|---------------------------------------------------------------------------|
G|---------------------------------------------------------------------------|
D|---------------------------------------------------------------------------|
A|----5h6----3h5----1h3p1-0---------5h6----3h5----1h3p1-0--------------------|
E|0000---0000---0000--------3h5-0000---0000---0000--------3^-----------------|
pm....   ....   ....            ....   ....   ....
e|---------------------------------------------------------------------------|
B|---------------------------------------------------------------------------|
G|---------------------------------------------------------------------------|
D|---------------------------------------------------------------------------|
A|----5h6----3h5----1h3p1-0---------5h6----3h5----1-3-1-0-0-0----------------|
E|0000---0000---0000--------3h5-0000---0000---0000------0-0-0-3ph------------|
pm....   ....   ....            ....   ....   ..... . . . . .

Breakdown
Guitar 1 (0:40 - 0:52)
e|---------------------------------------------------------------------------|
B|---------------------------------------------------------------------------|
G|---------------------------------------------------------------------------|
D|0-0-0-0------0-0------0-0------0-0-0-0------0-0----------------------------|
A|0-0-0-0------0-0------0-0------0-0-0-0------0-0----------------------------|
E|0-0-0-0------0-0------0-0------0-0-0-0------0-0----------------------------|
pm. . . .      . .      . .      . . . .      . .

guitar 2 (0:40 - 0:52)X4
e|---------------------------------------------------------------------------|
B|---------------------------------------------------------------------------|
G|---------------------------------------------------------------------------|
D|0-0-0-0-0-0-0-0-0-8/10\8-7-5-7---------------------------------------------|
A|0-0-0-0-0-0-0-0-0-8/10\8-7-5-7---------------------------------------------|
E|0-0-0-0-0-0-0-0-0-8/10\8-7-5-7---------------------------------------------|
pm. . . . . . . . .

chorus
guitar 1 (0:52 - 1:03) X2
e|---------------------------------------------------------------------------|
B|---------------------------------------------------------------------------|
G|---------------------------------------------------------------------------|
D|----7777----7777----8888----8888----5555----555577775555-------------------|
A|5555----5555----5555----5555----5555----5555------------88887777-----------|
E|---------------------------------------------------------------------------|

guitar 2 (0:52 - 1:03)X2
e|---------------------------------------------------------------------------|
B|---------------------------------------------------------------------------|
G|--------------------------------------------7~-----------------------------|
D|7~-------------8~--------------5~-----------7~-----------------------------|
A|7~-------------8~--------------5~-----------5~-----------------------------|
E|7~-------------8~--------------5~------------------------------------------|

chorus cont (1:03 - 1:08)
guitar 1
e|---------------------------------------------------------------------------|
B|---------------------------------------------------------------------------|
G|---77---77---1010---1010---1212---1212-1414141412121212101010109999--------|
D|7-7--7-7--7-7----7-7----7-7----7-7-----------------------------------------|
A|---------------------------------------------------------------------------|
E|---------------------------------------------------------------------------|
pm. .  . .  . .    . .    . .    . .     
guitar 2 (1:03 - 1:08)
e|---------------------------------------------------------------------------|
B|---------------------------------------------------------------------------|
G|7~--------8~---------------------------------------------------------------|
D|7~--------8~------------8~-------------1414141412121212101010109999--------|
A|5~--------6~------------8~-------------------------------------------------|
E|------------------------8~-------------------------------------------------|

guitar 1 (1:08 - 1:13)
e|---------------------------------------------------------------------------|
B|-----1010-----1010-----1111-----1111---88---88-1414141412121212101010109999|
G|10-10----10-10----10-10----10-10----8-8--8-8-------------------------------|
D|---------------------------------------------------------------------------|
A|---------------------------------------------------------------------------|
E|---------------------------------------------------------------------------|
pm.  .     .  .     .  .     .  .     . .  . .
guitar 2 (1:08 - 1:13)
e|---------------------------------------------------------------------------|
B|---------------------------------------------------------------------------|
G|7~----------------8~---------------------------1414141412121212101010109999|
D|7~----------------8~---------------8~--------------------------------------|
A|5~----------------6~---------------8~--------------------------------------|
E|-----------------------------------8~--------------------------------------|

breakdown/solo (1:13 - 1:16)
guitars 1 and 2
e|---------------------------------------------------------------------------|
B|---------------------------------------------------------------------------|
G|----------------------------12nh-------------------------------------------|
D|---------------------------------------------------------------------------|
A|000-000-000-000-000-000-000------------------------------------------------|
E|000-000-000-000-000-000-000------------------------------------------------|
pm... ... ... ... ... ... ...

guitar 1 (1:16 - 1:50)
e|--------------------------------------------------------------------------|
B|-t-------t-------t-------t-------t-------t-------t-------t----------------|
G|14-7h10-14-7h10-14-7h10-14-7h10-14-7h10-14-7h10-14-7h10-14-7h10-----------|
D|--------------------------------------------------------------------------|
A|--------------------------------------------------------------------------|
E|--------------------------------------------------------------------------|

e|--------------------------------------------------------------------------|
B|-t-------t-------t-------t-------t-------t-------t-------t----------------|
G|15-7h10-15-7h10-15-7h10-15-7h10-15-7h10-15-7h10-15-7h10-15-7h10-----------|
D|--------------------------------------------------------------------------|
A|--------------------------------------------------------------------------|
E|--------------------------------------------------------------------------|

e|--------------------------------------------------------------------------|
B|-t-------t-------t-------t-------t-------t-------t-------t----------------|
G|17-7h10-17-7h10-17-7h10-17-7h10-17-7h10-17-7h10-17-7h10-17-7h10-----------|
D|--------------------------------------------------------------------------|
A|--------------------------------------------------------------------------|
E|--------------------------------------------------------------------------|

e|--------------------------------------------------------------------------|
B|-t-------t-------t-------t-------t-------t-------t-------t----------------|
G|19-7h10-19-7h10-19-7h10-19-7h10-19-7h10-19-7h10-19-7h10-19-7h10-----------|
D|--------------------------------------------------------------------------|
A|--------------------------------------------------------------------------|
E|--------------------------------------------------------------------------|

guitar 2 (1:16 - 1:40) X2
e|---------------------------------------------------------------------------|
B|---------------------------------------------------------------------------|
G|---------------------------------------------------------------------------|
D|0-0-000000-----0-0-000000--0---0-----0-0-000000-----0-0-000000--0---0------|
A|0-0-000000-----0-0-000000--0---0-----0-0-000000-----0-0-000000--0---0------|
E|0-0-000000-----0-0-000000--0---0-----0-0-000000-----0-0-000000--0---0------|
pm. . ......     . . ......  .   .     . . ......     . . ......  .   .

guitar 2 (1:40 - 1:50) X1
e|---------------------------------------------------------------------------|
B|---------------------------------------------------------------------------|
G|---------------------------------------------------------------------------|
D|0-0-000000~----8-8-888888~-8---8-----10-10-101010101010~---0-0-000000~--0-0|
A|0-0-000000~----8-8-888888~-8---8-----10-10-101010101010~---0-0-000000~--0-0|
E|0-0-000000~----8-8-888888~-8---8-----10-10-101010101010~---0-0-000000~--0-0|
pm.   .....      .   .....   .   .     .     . . . . .       .   .....    . .

pre verse (1:50 - 2:00)
guitar 1
e|---------------------------------------------------------------------------|
B|---------------------------------------------------------------------------|
G|---------------------------------------------------------------------------|
D|---------------------------------------------------------------------------|
A|----5h6----3h5----1h3p1-0--------5h6----3h5----1h3p1-0---------------------|
E|0000---0000---0000-------3h5-0000---0000---0000--------3^------------------|
pm....   ....   ....           ....   ....   ....
e|---------------------------------------------------------------------------|
B|---------------------------------------------------------------------------|
G|---------------------------------------------------------------------------|
D|---------------------------------------------------0-----------------------|
A|----5h6----3h5----1h3p1-0--------5h6----3h5----1h3-0-----------------------|
E|0000---0000---0000-------3h5-0000---0000---0000----0-----------------------|
pm....   ....   ....           ....   ....   ....    .

guitar 2 (1:52 - 2:00)
e|---------------------------------------------------------------------------|
B|---------------------------------------------------------------------------|
G|---------------------------------------------------------------------------|
D|------------------0~-------------------------------------------------------|
A|0000--------------0~-------------------------------------------------------|
E|0000--------------0~-------------------------------------------------------|
pm....

Verse
Guitars 1 and 2 (2:00 - 2:11)
e|---------------------------------------------------------------------------|
B|---------------------------------------------------------------------------|
G|---------------------------------------------------------------------------|
D|---------------------------------------------------------------------------|
A|----5h6----3h5----1h3p1-0---------5h6----3h5----1h3p1-0--------------------|
E|0000---0000---0000--------3h5-0000---0000---0000--------3^-----------------|
pm....   ....   ....            ....   ....   ....
e|---------------------------------------------------------------------------|
B|---------------------------------------------------------------------------|
G|------------------------------------------------------------5ph------------|
D|---------------------------------------------------------------------------|
A|----5h6----3h5----1h3p1-0---------5h6----3h5----1-3-1-0-0-0----------------|
E|0000---0000---0000--------3h5-0000---0000---0000------0-0-0----------------|
pm....   ....   ....            ....   ....   ..... . . . . .

Breakdown
Guitar 1 (2:11 - 2:22)
e|---------------------------------------------------------------------------|
B|---------------------------------------------------------------------------|
G|---------------------------------------------------------------------------|
D|0-0-0-0------0-0------0-0------0-0-0-0------0-0----------------------------|
A|0-0-0-0------0-0------0-0------0-0-0-0------0-0----------------------------|
E|0-0-0-0------0-0------0-0------0-0-0-0------0-0----------------------------|
pm. . . .      . .      . .      . . . .      . .

guitar 2 (2:11 - 2:22)X4
e|---------------------------------------------------------------------------|
B|---------------------------------------------------------------------------|
G|---------------------------------------------------------------------------|
D|0-0-0-0-0-0-0-0-0-8/10\8-7-5-7---------------------------------------------|
A|0-0-0-0-0-0-0-0-0-8/10\8-7-5-7---------------------------------------------|
E|0-0-0-0-0-0-0-0-0-8/10\8-7-5-7---------------------------------------------|
pm. . . . . . . . .

chorus
guitar 1 (2:23 - 2:33) X2
e|---------------------------------------------------------------------------|
B|---------------------------------------------------------------------------|
G|---------------------------------------------------------------------------|
D|----7777----7777----8888----8888----5555----555577775555-------------------|
A|5555----5555----5555----5555----5555----5555------------88887777-----------|
E|---------------------------------------------------------------------------|

guitar 2 (2:23 - 2:33) X2
e|---------------------------------------------------------------------------|
B|---------------------------------------------------------------------------|
G|--------------------------------------------7~-----------------------------|
D|7~-------------8~--------------5~-----------7~-----------------------------|
A|7~-------------8~--------------5~-----------5~-----------------------------|
E|7~-------------8~--------------5~------------------------------------------|

chorus cont (2:33 - 2:38)
guitar 1
e|---------------------------------------------------------------------------|
B|---------------------------------------------------------------------------|
G|---77---77---1010---1010---1212---1212-1414141412121212101010109999--------|
D|7-7--7-7--7-7----7-7----7-7----7-7-----------------------------------------|
A|---------------------------------------------------------------------------|
E|---------------------------------------------------------------------------|
pm. .  . .  . .    . .    . .    . .     
guitar 2 (2:33 - 2:38)
e|---------------------------------------------------------------------------|
B|---------------------------------------------------------------------------|
G|7~--------8~---------------------------------------------------------------|
D|7~--------8~------------8~-------------1414141412121212101010109999--------|
A|5~--------6~------------8~-------------------------------------------------|
E|------------------------8~-------------------------------------------------|

guitar 1 (2:38 - 2:43)
e|---------------------------------------------------------------------------|
B|-----1010-----1010-----1111-----1111---88---88-1414141412121212101010109999|
G|10-10----10-10----10-10----10-10----8-8--8-8-------------------------------|
D|---------------------------------------------------------------------------|
A|---------------------------------------------------------------------------|
E|---------------------------------------------------------------------------|
pm.  .     .  .     .  .     .  .     . .  . .
guitar 2 (2:38 - 2:43)
e|---------------------------------------------------------------------------|
B|---------------------------------------------------------------------------|
G|7~----------------8~---------------------------1414141412121212101010109999|
D|7~----------------8~---------------8~--------------------------------------|
A|5~----------------6~---------------8~--------------------------------------|
E|-----------------------------------8~--------------------------------------|

pre outro X4 (2:43 - 3:04)
Guitars 1 and 2
e|---------------------------------------------------------------------------|
B|---------------------------------------------------------------------------|
G|------5-7-8-7---8-7---5h7--------5-7-8-7-5-1010101088887h8p7---------------|
D|5-7-8---------4------------5-7-8----------------------------8--------------|
A|---------------------------------------------------------------------------|
E|---------------------------------------------------------------------------|
pm                                            ...........

Outro (3:04 - 3:09)
guitar 1
e|---------------------------------------------------------------------------|
B|---------------------------------------------------------------------------|
G|---------------------------------------------------------------------------|
D|----------------------------------------------------0----------------------|
A|----5h6----3h5----1h3p1-0----------5h6----3h5----1h30----------------------|
E|0000---0000---0000--------3h5--0000---0000---0000---0----------------------|
pm....   ....   ....             ....   ....   ....   .

guitar 2
Guitar 2 (3:04 - 3:09)
e|---------------------------------------------------------------------------|
B|---------------------------------------------------------------------------|
G|---------------------------------------------------------------------------|
D|0~-------------------------------------------------------------------------|
A|0~-------------------------------------------------------------------------|
E|0~-------------------------------------------------------------------------|
Добавлено: 14.09.2013
Другие материалы по этой песне:
  • Аккорды и текст

Страница создана 14.09.2013
http://primanota.ru/unearth/cutman-chords.htm
Привет, Гость.
Предлагаем пройти революционный курс по гитаре.
Подарок от PrimaNota.Ru, забирай!