PrimaNota.ru - самый крупный в мире бесплатный архив песенных текстов, аккордов, табулатур и нот


Unearth - Black Hearts Now Reign - текст песни, таба, видео

Регистрация Запомнить меня
Войти через:  Facebook Google Twitter Vk Yandex Mail.ru

Unearth - Black Hearts Now Reign - текст песни, таба, видео

Печатать
Просмотров: 100
Edited by: keegan O  (program used: auacity)
e|---------------------------------------------------------------------------|
b|---------------------------------------------------------------------------|
g|-9-------------------------------------------------------------------------|
d|-9-----------5-4-------5-----------5/-4--4-2-5-----------4/-5-5/-7-9/-10-9-|
a|-7-----------7-5-3-2-2-7-----------7/-5--5-3-3-----------2/-3-3/-5-7/-8--7-|
e|---0-000-000-----1-0-0---0-000-0-0-------------0-0-0-0-0-------------------|
PM                   .

continued...
E|-------------------------------| Play whole
B|-------------------------------| intro three
G|-------------------------------| times then..
D|--------------------9-7-9-10-9-|
A|--------------------7-5-7-8--7-|
E|-0-0-0-0-0-0-0-0--0------------|

Drum role...

e|--------------------------------------------------------------------|
b|--------------------------------------------------------------------|
g|--------------------------------------------------------------------|
d|----------------------------------------------------------4---------|
a|-9-9-9-9-9--------9-9--------------7-7-7-7-7------------5---7-5-4---|
e|-7-7-7-7-7-7-9-10-7-7-9-12-9-7-9-7-5-5-5-5-5-10-9-7-3-7-----------5-|

e|------------------------------------------------------------------------|
b|------------------------------------------------------------------------|
g|------------------------------------------------------------------------|
d|--------------------------------------------------------------4---------|
a|-9-9-9-9-9--------9-9--------------7-7-7-7-7----------------5---7-5-4---|
e|-7-7-7-7-7-7-9-10-7-7-9-12-9-7-9-7-5-5-5-5-5-10-9-7-3h-5p-7-----------5-|

e|-----------------------------------------------------------------|
b|-----------------------------------------------------------------|
g|-----------------------------------------------------------------|
d|-----------------------------------------------------------------|
a|-9-99-9-9--------9-99-9-9---------9-99-9-9--------9-10-9-7-9-7-5-|
e|-7-77-7-7-7-9-10-7-77-7-7-12-10-9-7-77-7-7-7-9-10-7--------------|
PM . .. .          . .. . .         . .. . .

e|--------------------------------|---------------------------|
b|--------------------------------|---------------------------|
g|--------------------------------|---------------------------|
d|-2-4-------5-4-2-----------5-4-2|-------------------5-4-2---|
a|-0-2-2h3p2-------2-2-2h3p2------|-3-2h3p2-0-0-2h3p2---------|
e|--------------------------------|---------------------------|


Do the bar above once through and then on the second time do the bar over this
like...

e|--------------------------------------|
b|--------------------------------------|
g|--------------------------------------|
d|-7bend-7bend-10bend-10-9-7------------| Repeat all this twice.
a|---------------------------10-9-7-5-7-|
e|--------------------------------------|

e|------------------------------------------------------------------------|
b|------------------------------------------------------------------------|
g|------------------------------------------------------2bend-5-4-2-------|
d|-0-0h5p-0-4-5-4--0-0h5p-0-5-4-5--2-2h5p-0-4-5-4-5bend-------------5-4-2-|
a|------------------------------------------------------------------------|
e|------------------------------------------------------------------------|

e|---------------------------------------------------------------------------|
b|---------------------------------------------------------------------------|
g|---------------------------------------------------------------------------|
d|-0-0h5p-0-4-5-4--0-0h5p-0-5-4-5--2-2h5p-0-4-5-4-----------------9-7-9-10-7-|
a|----------------------------------------------------------------7-5-7-8--7-|
e|------------------------------------------------0-0-0-0-0-0-0-0------------|

e|---------------------------------------------------------------------------|
b|---------------------------------------------------------------------------|
g|-9-------------------------------------------------------------------------|
d|-9-----------5-4-------5-----------5/-4--4-2-5-----------4/-5-5/-7-9/-10-9-|
a|-7-----------7-5-3-2-2-7-----------7/-5--5-3-3-----------2/-3-3/-5-7/-8--7-|
e|---0-000-000-----1-0-0---0-000-0-0-------------0-0-0-0-0-------------------|
PM                   .

continued...
E|-------------------------------|
B|-------------------------------|
G|-------------------------------|
D|--------------------9-7-9-10-9-|play twice
A|--------------------7-5-7-8--7-|
E|-0-0-0-0-0-0-0-0--0------------|

then...

e|------------------------|
b|------------------------|
g|------------------------|
d|-9~~~~~~~~8~8-----------|
a|-7~~~~~~~~7~7~~~~~~~~~~~|
e|------------------------|
PM          .

e|--------------|
b|--------------|
g|--------------|
d|--------------|
a|-2-2-2---22-3-|
e|-0-0-0---00-1-|

e|------------------|
b|------------------|x3
g|------------------|
d|------------------|
a|-222-2-22--22-22-3|
e|-000-0-00--00-00-1|
PM ... .  .  .. .

e|---------------------|
b|---------------------|
g|---------------------|
d|---------------------|
a|-2-2-2-2-2-2----22-3-|
e|-0-0-0-0-0-0----00-1-|

e|-------------------------------------------------------------------|
b|-------------------------------------------------------------------|
g|-------------------------------------------------------------------|x4
d|-------------------------------------------------------------------|
a|-------5-------5------4--------4--------9--------9-------7-------7-|
e|-000-7---000-7---000-5--00-0-5---000-10---000-10---000-9---000-9---|

then the drummer and singer play...

e|----------------------------------------------------------------------------|
b|----------------------------------------------------------------------------|
g|----------------------------------------------------------------------------|
d|---9-7-9----9-7-9---10-7-10-----10-9-10-----12-10-12-----12-11-12-----------|
a|---7-5-7----7-5-7----8-7--8------8-7--8-----10-8--10-----10-9--10-continues-|
e|000------000------000--------000--------000----------000----------down------|
PM...      ...      ...        ...        ...          ...
e|---------|
b|---------|play this three times before solo.
g|---------|
d|-9-7-----|
a|-7-5-7-2-|
e|-----5-0-|

e|--------------------------------|
b|--------------------------------|repeat twice
g|--------------------------------|
d|--------12-10-9-10-9----9-------|
a|-7-9-10--------------10---12-10-|
e|--------------------------------|

e|-------------------------------------|
b|-------------------------------------|
g|-------------------------------------|repeat twice
d|----------15-14----12----------------|
a|----------------15----15-14-15-14-12-|
e|-13-15-17----------------------------|

e|-----------------------------------|
b|-----------------------------------|
g|----------12-10-9-10-9----9--------|repeat twice
d|-----------------------12---12-10--|
a|-10-12-14--------------------------|
e|-----------------------------------|

e|---------------------------------|
b|---------------------------------|
g|-----------------12-10-9-10-9----|
d|-9-10-12-12-10-9--------------12-|
a|---------------------------------|
e|---------------------------------|

then again................

e|--------------------------------|
b|--------------------------------|repeat twice
g|--------------------------------|
d|--------12-10-9-10-9----9-------|
a|-7-9-10--------------10---12-10-|
e|--------------------------------|

e|-------------------------------------|
b|-------------------------------------|
g|-------------------------------------|repeat twice
d|----------15-14----12----------------|
a|----------------15----15-14-15-14-12-|
e|-13-15-17----------------------------|

e|-----------------------------------|
b|-----------------------------------|
g|----------12-10-9-10-9----9--------|repeat twice
d|-----------------------12---12-----|
a|-10-12-14--------------------------|
e|-----------------------------------|

e|--------------------------------|
b|--------------------------------|
g|------------------------------9-|
d|-9-10-12-12-10-9-10-9----9------|
a|----------------------12---12---|
e|--------------------------------|
Добавлено: 15.10.2013
Другие материалы по этой песне:

Страница создана 13.04.2012
http://primanota.ru/unearth/black-hearts-now-reign-chords.htm
Привет, Гость.
Предлагаем пройти революционный курс по гитаре.
Подарок от PrimaNota.Ru, забирай!