PrimaNota.ru - самый крупный в мире бесплатный архив песенных текстов, аккордов, табулатур и нот


Undrop - Train - таба, видео

Регистрация Запомнить меня
Войти через:  Facebook Google Twitter Vk Yandex Mail.ru

Undrop - Train - таба, видео

Печатать
Просмотров: 73
Artist: Undrop
Song: Train

Intro - Main Riff
------------------------------

   G            Cadd9                    G        Cadd9

E||------------------------------------|-------------------------------------|
B||------------------------------------|-----------------------------------3-|
G||------0-------------0---------0h-2h-|-0--------0---0---0--------0h2/4-----|
D||-------------------------0h-2-------|---0------------------0h2------------|
A||---------0h-2h-3------3-------------|--------0---2---3--------------------|
E||-3--3-------------------------------|-----3-------------------------------|


  G      D/F#     Em                  G                   Am7

E||-----------------------------------|-------------------3--3-----||
B||-----------------------------------|-------------------1--1-----||
G||--0-----------2--------0-----------|-------------------0--0----*||
D||----0-------0--------2---------0h2p|0------------------2--2----*||
A||-------------------------0h2-------|--0----0--2--0--------------||
E||------3--2--------0----------------|----3-----------------------||


Verse 1 (Playing main riff together)
----------------------------------------------

     G               C      G             C
     There is a train, it's leaving today (yeah)

           G               C                   G   C
     It's leaving today and I'm gonna get on it

     G               C          G             C
     There is a train so don't let it pass without you

           G               C          G            C
     Don't let it leave without you, just get on it


Pre-Chorus
------------------

     Bm7                    Am7                       G                  D

E||-----5------5--5------------3------3--3--||-----------------------------2---2-2--||
B||-----3------3--3------------1------1--1--||-----------------------------3---3-3--||
G||-----2------2--2------------0------0--0--||-----------0-------0---0-----2---2-2--||
D||-----4------4--4------------2------2--2--||-----------0---------------0----------||
A||--2---------2--2---------0---------0--0--||-----------------0---2----------------||
E||-----------------------------------------||--------3-----------------------------||

     There is a train that leaves tomorrow,     and we're gonna get on it


     Bm7                    Am7                       G                  D

E||-----5------5--5------------3------3--3--||-----------------------------2---2-2--||
B||-----3------3--3------------1------1--1--||-----------------------------3---3-3--||
G||-----2------2--2------------0------0--0--||-----------0-------0---0-----2---2-2--||
D||-----4------4--4------------2------2--2--||-----------0---------------0----------||
A||--2---------2--2---------0---------0--0--||-----------------0---2----------------||
E||-----------------------------------------||--------3-----------------------------||

     There is a train, common let's hurry,            let's get on it...


   G            Cadd9                    G        Cadd9

E||------------------------------------|------------------------------------||
B||------------------------------------|------------------------------------||
G||------0-------------0---------0h-2h-|-0--------0---0-4-4-4-----7-7-7-----||
D||-------------------------0h-2-------|---0------------4-4-4-----7-7-7-----||
A||---------0h-2h-3------3-------------|--------0---2---2-2-2-----5-5-5-----||
E||-3--3-------------------------------|-----3------------------------------||

    There is a train...                                  And      it's


Chorus (x2)
--------------

    Em          C           G          D
    Going away, going away, going away now

    Em         C            G                  D
    Going to a higher destination let's get on it

Note: The first time u play the chorus slide from second D one octave up



Verse 2
-----------------------

    G            c          G        C
    There is a train only a moment away

    G                  C              G         C
    It's coming like a wave, let's go for a ride

           G          C       G               C
    Like a healing herb, yeah it's like a cure

        G           C           G       C
    A million powerful flowers in bloom


Pre-Chorus
------------------

     Bm7                    Am7                       G                  D

E||-----5------5--5------------3------3--3--||-----------------------------2---2-2--||
B||-----3------3--3------------1------1--1--||-----------------------------3---3-3--||
G||-----2------2--2------------0------0--0--||-----------0-------0---0-----2---2-2--||
D||-----4------4--4------------2------2--2--||-----------0---------------0----------||
A||--2---------2--2---------0---------0--0--||-----------------0---2----------------||
E||-----------------------------------------||--------3-----------------------------||

     There is a train that leaves tomorrow,     and we're gonna get on it


     Bm7                    Am7                       G                  D

E||-----5------5--5------------3------3--3--||-----------------------------2---2-2--||
B||-----3------3--3------------1------1--1--||-----------------------------3---3-3--||
G||-----2------2--2------------0------0--0--||-----------0-------0---0-----2---2-2--||
D||-----4------4--4------------2------2--2--||-----------0---------------0----------||
A||--2---------2--2---------0---------0--0--||-----------------0---2----------------||
E||-----------------------------------------||--------3-----------------------------||

     There is a train, common let's hurry,            let's get on it...


   G            Cadd9                    G        Cadd9

E||------------------------------------|-------------------------------------|
B||------------------------------------|-----------------------------------3-|
G||------0-------------0---------0h-2h-|-0--------0---0---0--------0h2/4-----|
D||-------------------------0h-2-------|---0------------------0h2------------|
A||---------0h-2h-3------3-------------|--------0---2---3--------------------|
E||-3--3-------------------------------|-----3-------------------------------|

    So there is a train...

  G      D/F#     Em                  G             Bm        D

E||-----------------------------------|-----------------------------------||
B||-----------------------------------|-----------------------------------||
G||--0-----------2--------0-----------|-------------4-4-4-4---7-7-7-7----*||
D||----0-------0--------2---------0h2p|0------------4-4-4-4---7-7-7-7----*|| x1
A||-------------------------0h2-------|--0----0--2--2-2-2-2---5-5-5-5-----||
E||------3--2--------0----------------|----3------------------------------||

                                                 ...and       it's 


Chorus
------------

Same as before



Solo
--------------




Verse 3
--------------

Let's give thanks and praises to the supreme
By singing his glories over and over and over again



Bridge
--------------

Using Sri-krsna-cattanya-Prabttu-
Neyananda. Sri - Advaita gadadhara
Srivasad - Gaura Bhatka Vrnda
Hare Krsna Hare Krsna Krsna hare Hare
Hare Rama Hare Rama Rama Rama...


Outro
-----------
           Em                       C
If you're going to be happy in this life or not

      G                          D
Dualities of being cold and next moment being hot

           Em                           C
Depends on what you used to do and what you do today

        G                       D
So just get on this train cause it will...

Em            C             G             D
Take us away, take us away, take us away yeah

Em            C           G                  D
Take us to a higher destination let's get on it

Em            C             G             D
Take us away, take us away, take us away yeah

Em            C           G                     D          Em   C       G       D
Take us to a higher destination let's go, let's go take us away now

Transcribed by JoLlo (aka neoxde)
Добавлено: 22.06.2013
Другие материалы по этой песне:
  • Аккорды и текст

Страница создана 22.06.2013
http://primanota.ru/undrop/train-chords.htm
Привет, Гость.
Предлагаем пройти революционный курс по гитаре.
Подарок от PrimaNota.Ru, забирай!