PrimaNota.ru - самый крупный в мире бесплатный архив песенных текстов, аккордов, табулатур и нот


Undertones - Wednesday - таба, видео

Регистрация Запомнить меня
Войти через:  Facebook Google Twitter Vk Yandex Mail.ru

Undertones - Wednesday - таба, видео

Печатать
Просмотров: 100
-------------------------------------------------------------------------------
                            wednesday week - The Undertones
-------------------------------------------------------------------------------
Tabbed by: Jeff



verse gtr:

   F         Am          Bb          C         Eb       Bb         C
e|-----5----------5-----------1----------0---------3---------1---------0----------|
B|---6---6-----5-----5-----3-----3-----1---1-----4---4-----2---2-----1---1/13-13\-|
G|--------------------------------------------------------------------------------|
D|-7---------7-----------3-----------2-------------------3---------2--------------|
A|-----------------------------------3---------6-------------------3--------------|
E|--------------------------------------------------------------------------------|


F        Am       Bb       C 
Here she comes to say good night

     Eb     Bb      C
I'll get no sleep tonight

       F        Am         Bb        C 
With a constant vision she still can see


    Eb      Bb           C
She was the girl for me


C
Wednesday week - she loved me
Wednesday week never happened at all

e|---------------------------------------------------------------------------|
B|---------------14-13--13---------------------------------------------------|
G|-/10-10-10-13---------13---------------------------------------------------|
D|---------------------------------------------------------------------------|
A|---------------------------------------------------------------------------|
E|---------------------------------------------------------------------------|


F         Am           Bb      C 
There she goes I won't see her again


      Eb      Bb                   C
She's gone to school with her best friend


    F    Am       Bb                  C 
She only does the things she likes to do


Eb      Bb              C
Now she wants something new

C
Wednesday week - she loved me
Wednesday week never happened at all

(instrumental break)

C
Wednesday week - she loved me
Wednesday week never happened at all

F        Am       Bb       C 
Here she comes to say good night

     Eb     Bb      C
I'll get no sleep tonight

C
Wednesday week - she loved me
Wednesday week - she loved me
Wednesday week never happened at all


| /  slide up
| \  slide down
| h  hammer-on
| p  pull-off
| ~  vibrato
| +  harmonic
| x  Mute note
===============================================================================
Добавлено: 18.04.2012
Другие материалы по этой песне:
  • Аккорды и текст

Страница создана 18.04.2012
http://primanota.ru/undertones/wednesday-chords.htm
Привет, Гость.
Предлагаем пройти революционный курс по гитаре.
Подарок от PrimaNota.Ru, забирай!