PrimaNota.ru - самый крупный в мире бесплатный архив песенных текстов, аккордов, табулатур и нот


Underneath The Gun - Muckraker - таба, бас-таба, видео

Регистрация Запомнить меня
Войти через:  Facebook Google Twitter Vk Yandex Mail.ru

Underneath The Gun - Muckraker - таба, бас-таба, видео

Печатать
Просмотров: 187
Уроки эстрадного вокала в Санкт-Петербурге
Artist: Underneath The Gun
Album: The Awakening
Song: Muckraker


Drop B (B F# B E G# C#)

|--------------------------------|-----------------------------|x2
|--------------------------------|-----------------------------|
|--------------------------------|-----------------------------|
|--------------------------------|-----------------------------|
|----------888888---------777777-|---------888888-----8-----7--|
|--55557777-------55557777-------|-55557777-------000-8-000-7--|

|-----------------------------------------|x4
|-----------------------------------------|
|-----------------------------------------|
|-----------------------------------------|
|-0000-8888-5555-4444-7777-5555-4444-7777-|
|-----------------------------------------|

|--------------------------------|-----------------------------|x2
|--------------------------------|-----------------------------|
|--------------------------------|-----------------------------|
|--------------------------------|-----------------------------|
|----------888888---------777777-|---------888888-----8-----7--|
|--55557777-------55557777-------|-55557777-------000-8-000-7--|

|--------------------------------|x4
|--------------------------------|
|--------------------------------|
|--------------------------------|
|-101010777-888555-777333--------|
|-------------------------333000-|

|-----------------------|---------|----|---------|
|-----------------------|---------|----|---------|
|-----------------------|---------|----|---------|
|-----------------------|---------|----|---------|
|-10-7-8-5-7-3-0-3-5-0--|-000000--|----|----x/\--|
|-10-7-8-5-7-3-0-3-5-0--|-000000--|----|-00-x/\--|

Breakdown (x2)
|-------------------------------------------------|
|-------------------------------------------------|
|-------------------------------------------------|
|-------------------------------------------------|
|-00000000----0000-1-4-3--00000000----0000-3-6-5--|
|-00000000----0000-1-4-3--00000000----0000-3-6-5--|

|--------------------------------------|
|--------------------------------------|
|--------------------------------------|
|--------------------------------------|
|-00000000----0000-1-4-3--3-<4>-4-<3>--|
|-00000000----0000-1-4-3--3-----4------|

|--------------------------------| x1
|--------------------------------|
|--------------------------------|
|--------------------------------|
|-101010777-888555-777333--------|
|-------------------------333000-|

|---------------------------------------------|x4
|---------------------------------------------|
|---------------------------------------------|
|---------------------------------------------|
|-555888555777333-------555888555888101010777-|
|----------------333000-----------------------|

Breakdown buildup
|---------|------------|
|---------|-------(x4)-|
|---------|------------|
|---------|------------|
|-0-------|-00-0-------|
|-0-------|-00-0-------|

Breakdown
|-------------------------------------------|
|-------------------------------------------|
|-------------------------------------------|
|-------------------------------------------|
|-0000-------00000000--0000-------00000000--|
|-0000-------00000000--0000-------00000000--|
|
|-------------------------------------------|
|-------------------------------------------|
|-------------------------------------------|
|-------------------------------------------|
|-0000-------00000000--0000-------00000000--|
|-0000-------00000000--0000-------00000000--|

|-------------------------------------------|----------|---------|
|-------------------------------------------|----------|---------|
|-------------------------------------------|----------|---------|
|-------------------------------------------|----------|---------|
|-0000-------00000000--0000-------00000000--|-0-0-0-0--|---------|
|-0000-------00000000--0000-------00000000--|-0-0-0-0--|---------|
|
|-------------------------------------------|----------|---------|
|-------------------------------------------|----------|---------|
|-------------------------------------------|----------|---------|
|-------------------------------------------|----------|---------|
|-0000-------00000000--0000---<3>-00000000--|-0-0-0-0--|---------|
|-0000-/\<3>-00000000--0000-/\----00000000--|-0-0-0-0--|---------|


Break it down harder!                x4
|--------------------------------------|----------|------------|
|--------------------------------------|----------|------------|
|--------------------------------------|----------|------------|
|-1-1-1-1-----------1-1-1-1-1-1-1-1----|--1-1-1-1-|------------|
|-0-0-0-0-----------0-0-0-0-0-0-0-0----|--0-0-0-0-|------------|
|-1-1-1-1-----------1-1-1-1-1-1-1-1----|--1-1-1-1-|------------|

Isn't the song over? Nope!                      x4
|-------------------------------------------------|----------|
|-------------------------------------------------|----------|
|-------------------------------------------------|----------|
|-1--1--1--1-----------1--1--1--1--1--1--1--1-----|----------|
|-0--0--0--0-----------0--0--0--0--0--0--0--0-----|--0-0-0-0-|
|-1--1--1--1-----------1--1--1--1--1--1--1--1-----|--1-1-1-1-|
Добавлено: 25.06.2012
Другие материалы по этой песне:

Страница создана 15.03.2012
http://primanota.ru/underneath-the-gun/muckraker-chords.htm
Привет, Гость.
Предлагаем пройти революционный курс по гитаре.
Подарок от PrimaNota.Ru, забирай!