PrimaNota.ru - самый крупный в мире бесплатный архив песенных текстов, аккордов, табулатур и нот


Under The Flood - In Vain - таба, видео

Регистрация Запомнить меня
Войти через:  Facebook Google Twitter Vk Yandex Mail.ru

Under The Flood - In Vain - таба, видео

Печатать
Просмотров: 108
----------------------------------------------------------------------------
                                In Vain
                            Under the Flood
----------------------------------------------------------------------------

 I've known this song for a while to start but never took the time to make the tab for
because of how busy I have been trying to learn an album for Bullet for my Valentine but
I'll now put in a guitar tab that is one of my favorites to play. I know I might say 
for a lot of songs, but this one is different. Enjoy!

Username: dkm817 (same on X box live)
Email: guitardrums@rockfan.com

Website for band: http://www.myspace.com/undertheflood

Guitar 1 (C G C F A D)
Guitar 2 (C G C F A D)
Sorry no 3rd guitar I don't have that yet

Intro

Guitar 1 (after guitar 1 has done the part once)
D-------------------------------------------------|
A-------------------------------------------------|
F-------------------------------------------------|
C-7-7-7---7-7-7--3-3-3-3--7-7-7---7-7-7--3-3-3-3--| x2
G-7-7-7---7-7-7--3-3-3-3--7-7-7---7-7-7--3-3-3-3--|
C-7-7-7---7-7-7--3-3-3-3--7-7-7---7-7-7--3-3-3-3--|
pm. . .   . . .  . . . .  . . .   . . .  . . . .

Guitar 2
D---------------------------------------17-15------ |
A-13-12-10--12-11-9--13-12-10--12-11-9--------10-11 |
F-------------------------------------------------- |
C-------------------------------------------------- |
G-------------------------------------------------- |
C-------------------------------------------------- |
                                                    |----x2
Guitar 2                                            |
D-------------------------------------------------- |
A-13-12-10--12-11-9--13-12-10--12-11-9--9-10-11-12- |
F-------------------------------------------------- |
C-------------------------------------------------- |
G-------------------------------------------------- |
C-------------------------------------------------- |

Intro 2

Guitar 1
D-----------------------------------------------------------------|
A-----------------------------------------------------------------|
F-----------------------------------------------------------------|
C-7-7--5-5-5--3-3--3-3-3--3-3-5-5--7-7--5-5-5--3-3--3-3-3--3-3--3-|
G-7-7---------3-3---------3-3-5-5--7-7---------3-3---------3-3--3-|
C-7-7---------3-3---------3-3-5-5--7-7---------3-3---------3-3--3-|

Guitar 2
D----------------------------------------------------------------------|
A----------------------------------------------------------------------|
F----------------------------------------------------------------------|
C-7-7-7-7-7-7-3-3-3-3-3-3-3-3-5-5--7-7-7-7-7-7-3-3-3-3-3-3-3-3-5-5-----|
G-7-7-7-7-7-7-3-3-3-3-3-3-3-3-5-5--7-7-7-7-7-7-3-3-3-3-3-3-3-3-5-5-12\-|
C-7-7-7-7-7-7-3-3-3-3-3-3-3-3-5-5--7-7-7-7-7-7-3-3-3-3-3-3-3-3-5-5-----|

Guitar 1
D-----------------------------------------------------------------|
A-----------------------------------------------------------------|
F-----------------------------------------------------------------|
C-7-7--5-5-5--3-3--3-3-3--3-3-5-5--7-7--5-5-5--3-3--3-3-3--3-3--3-|
G-7-7---------3-3---------3-3-5-5--7-7---------3-3---------3-3--3-|
C-7-7---------3-3---------3-3-5-5--7-7---------3-3---------3-3--3-|

Guitar 2
D-------------------------------------------------------------------------|
A-10-10-10-10-11-10-10-10-10-10-10-8-8-8-10-10-10-10-11-10-10-10-10-10-10-|
F-------------------------------------------------------------------------|
C-------------------------------------------------------------------------|
G-------------------------------------------------------------------------|
C-------------------------------------------------------------------------|

Guitar 1
D--------------------------|
A--------------------------|
F-12br~~~~~~~~~~~~~~~~~~~~~
C-10br~~~~~~~~~~~~~~~~~~~~~
G--------------------------|
C--------------------------|

Guitar 2
D-----------------------------------------|
A-----------------------------------------|
F---------------5-5-5---------------------|
C-7-7-7--5-5-5---------5-5-5-5--7-7--5-5--| x2
G-----------------------------------------|
C-----------------------------------------|

Verse

Guitar 1
D-------------------------------------------------|
A-------------------------------------------------|
F-------------------------------------------------|
C-7-7-7----------3-3-3-3--7-7-7---7-7-7--3-3-3-3--| x4
G-7-7-7----------3-3-3-3--7-7-7---7-7-7--3-3-3-3--|
C-7-7-7----------3-3-3-3--7-7-7---7-7-7--3-3-3-3--|
pm. . .   . . .  . . . .  . . .   . . .  . . . .

Guitar 2
D---------------------------------------17-15------ |
A-13-12-10--12-11-9--13-12-10--12-11-9--------10-11 |
F-------------------------------------------------- |
C-------------------------------------------------- |
G-------------------------------------------------- |
C-------------------------------------------------- |
                                                    |----x2
Guitar 2                                            |
D-------------------------------------------------- |
A-13-12-10--12-11-9--13-12-10--12-11-9--9-10-11-12- |
F-------------------------------------------------- |
C-------------------------------------------------- |
G-------------------------------------------------- |
C-------------------------------------------------- |

Pre Chorus

Guitar 1
D------------------------------|
A-----1-0-----0--1-0-----------|
F---------0----------0~~~~~----|
C---------------------------7\-|
G---------------------------7\-|
C---------------------------7\-|

Guitar 2
D------------------------------|
A-13-12~~~~~~~-13-12-10~~~-----|
F------------------------------|
C--------------------------10\-|
G--------------------------10\-|
C--------------------------10\-|

Chorus x2

Guitar 1
D----------------------------------------------------------------|
A----------------------------------------------------------------|
F----------------------------------------------------------------|
C-5-5-5-5-5-5-5-9~~-5-5-5-5-5-5-5-9~-3-3--3-3--3-3--3-3---2--3-3-|
G-5-5-5-5-5-5-5-9~~-5-5-5-5-5-5-5-9~-3-3--3-3--3-3--3-3---2--3-3-|
C-5-5-5-5-5-5-5-9~~-5-5-5-5-5-5-5-9~-3-3--3-3--3-3--3-3---2--3-3-|

Guitar 1
D-----------------------------|
A-----------------------------|
F-----------------------------|
C-3-3--3-3--3-3--3-3---2--3-3-|
G-3-3--3-3--3-3--3-3---2--3-3-|
C-3-3--3-3--3-3--3-3---2--3-3-|

Guitar 2
D--------------------------------------------------------------------|
A--------------------------------------------------------------------|
F--------------------------------------------------------------------|
C-5-5-5-5-5-5-5-9~~-5-5-5-5-5-5-5-9~-3-3--3-3--3-3-------------------|
G-5-5-5-5-5-5-5-9~~-5-5-5-5-5-5-5-9~-3-3--3-3--3-3-------------------|
C-5-5-5-5-5-5-5-9~~-5-5-5-5-5-5-5-9~-3-3--3-3--3-3-11-11-12-12-13-14-|

Guitar 2
D-20-19-20-19-20-19--------------|
A--------------------------------|
F--------------------------------|
C-------------------3-3---2--3-3-|
G-------------------3-3---2--3-3-|
C-------------------3-3---2--3-3-|

Verse 2

Guitar 1 and 2 (I couldn't find the guitar part, way to light)
D-------------------------------------------------|
A-------------------------------------------------|
F-------------------------------------------------|
C-7-7-7----------3-3-3-3--7-7-7---7-7-7--3-3-3-3--| x4
G-7-7-7----------3-3-3-3--7-7-7---7-7-7--3-3-3-3--|
C-7-7-7----------3-3-3-3--7-7-7---7-7-7--3-3-3-3--|
pm. . .   . . .  . . . .  . . .   . . .  . . . .

Verse 3

Guitar 1
D-------------------------------------------------|
A-------------------------------------------------|
F-------------------------------------------------|
C-7-7-7---7-7-7--3-3-3-3--7-7-7---7-7-7--3-3-3-3--| x2
G-7-7-7---7-7-7--3-3-3-3--7-7-7---7-7-7--3-3-3-3--|
C-7-7-7---7-7-7--3-3-3-3--7-7-7---7-7-7--3-3-3-3--|
pm. . .   . . .  . . . .  . . .   . . .  . . . .

Guitar 2
D------------------------------------------------|
A------------------------------------------------|
F-----11h12-----11h12-11-----11h12-----11h12-11--|
C--7---------7------------7---------7------------| x2
G------------------------------------------------|
C------------------------------------------------|

Chorus x2

Guitar 1
D----------------------------------------------------------------|
A----------------------------------------------------------------|
F----------------------------------------------------------------|
C-5-5-5-5-5-5-5-9~~-5-5-5-5-5-5-5-9~-3-3--3-3--3-3--3-3---2--3-3-|
G-5-5-5-5-5-5-5-9~~-5-5-5-5-5-5-5-9~-3-3--3-3--3-3--3-3---2--3-3-|
C-5-5-5-5-5-5-5-9~~-5-5-5-5-5-5-5-9~-3-3--3-3--3-3--3-3---2--3-3-|

Guitar 1
D-----------------------------|
A-----------------------------|
F-----------------------------|
C-3-3--3-3--3-3--3-3---2--3-3-|
G-3-3--3-3--3-3--3-3---2--3-3-|
C-3-3--3-3--3-3--3-3---2--3-3-|

Guitar 2
D--------------------------------------------------------------------|
A--------------------------------------------------------------------|
F--------------------------------------------------------------------|
C-5-5-5-5-5-5-5-9~~-5-5-5-5-5-5-5-9~-3-3--3-3--3-3-------------------|
G-5-5-5-5-5-5-5-9~~-5-5-5-5-5-5-5-9~-3-3--3-3--3-3-------------------|
C-5-5-5-5-5-5-5-9~~-5-5-5-5-5-5-5-9~-3-3--3-3--3-3-11-11-12-12-13-14-|

Guitar 2
D-20-19-20-19-20-19--------------|
A--------------------------------|
F--------------------------------|
C-------------------3-3---2--3-3-|
G-------------------3-3---2--3-3-|
C-------------------3-3---2--3-3-|

Breakdown (lead-in to guitar solo)

Guitar 1  (I would try to avoid learning this; it is hard)
D-------------------------------------------|
A-------------------------------------------|
F-------------------------------------------|
C-9--6--7--7--4--5--5--2--3--7--4--5--9--6--| x2
G-9--6--7--7--4--5--5--2--3--7--4--5--9--6--|
C-9--6--7--7--4--5--5--2--3--7--4--5--9--6--|

Guitar 2
D-------------------------------------------------|
A-10-10-10-10-10-10-10-10-10-10-10-10-10-10-10-10-|
F-------------------------------------------------|
C-------------------------------------------------|
G-------------------------------------------------|
C-------------------------------------------------|
x                                               X

GUITAR SOLO!!!!!

Guitar 1
D-------------------------------------------------------|
A----------------------------------------------13-12-17-|
F-------------------------------------------------------|
C-9--6--7--7--4--5--5--2--3--7--4--5--9--6 x7-----------|
G-9--6--7--7--4--5--5--2--3--7--4--5--9--6--------------|
C-9--6--7--7--4--5--5--2--3--7--4--5--9--6--------------|

Guitar 2
D--------------------------------------|
A-10b~-10p8--5-3-5-7-5--13~-12-11-10~~-|
F--------------------------------------|
C--------------------------------------|
G--------------------------------------|
C--------------------------------------|

Guitar 2
D-17br-13-12-11-12-13-12-13~~-|
A-----------------------------|
F-----------------------------|
C-----------------------------|
G-----------------------------|
C-----------------------------|

Guitar 2
D-17-16-15|-17-16-15|-17-16-15|-17-15-17~~-|
A------------------------------------------|
F------------------------------------------|
C------------------------------------------|
G------------------------------------------|
C------------------------------------------|

Guitar 2 finger tapping
D-21p16h18-21p16h18-21p16h18-21p16h18-21p16h18-21p16h18-|
A-------------------------------------------------------|
F-------------------------------------------------------|
C-------------------------------------------------------|
G-------------------------------------------------------|
C-------------------------------------------------------|

Guitar 2
D-0/21-17p16-17p16-17b~~~~~~-|
A----------------------------|
F----------------------------|
C----------------------------|
G----------------------------|
C----------------------------|

Guitar 1 and 2
D-------------------------|
A-------------------------|
F-------------------------|
C-0s-0s-0s-0s-0s-0s-0s-0--|s
G-0s-0s-0s-0s-0s-0s-0s-0--|s
C-0s-0s-0s-0s-0s-0s-0s-0--|s


Chorus x2

Guitar 1
D----------------------------------------------------------------|
A----------------------------------------------------------------|
F----------------------------------------------------------------|
C-5-5-5-5-5-5-5-9~~-5-5-5-5-5-5-5-9~-3-3--3-3--3-3--3-3---2--3-3-|
G-5-5-5-5-5-5-5-9~~-5-5-5-5-5-5-5-9~-3-3--3-3--3-3--3-3---2--3-3-|
C-5-5-5-5-5-5-5-9~~-5-5-5-5-5-5-5-9~-3-3--3-3--3-3--3-3---2--3-3-|

Guitar 1
D-----------------------------|
A-----------------------------|
F-----------------------------|
C-3-3--3-3--3-3--3-3---2--3-3-|
G-3-3--3-3--3-3--3-3---2--3-3-|
C-3-3--3-3--3-3--3-3---2--3-3-|

Guitar 2
D--------------------------------------------------------------------|
A--------------------------------------------------------------------|
F--------------------------------------------------------------------|
C-5-5-5-5-5-5-5-9~~-5-5-5-5-5-5-5-9~-3-3--3-3--3-3-------------------|
G-5-5-5-5-5-5-5-9~~-5-5-5-5-5-5-5-9~-3-3--3-3--3-3-------------------|
C-5-5-5-5-5-5-5-9~~-5-5-5-5-5-5-5-9~-3-3--3-3--3-3-11-11-12-12-13-14-|

Guitar 2
D-20-19-20-19-20-19--------------|
A--------------------------------|
F--------------------------------|
C-------------------3-3---2--3-3-|
G-------------------3-3---2--3-3-|
C-------------------3-3---2--3-3-|

Outro

Guitar 1
D-----------------------------------------------------------------|
A-----------------------------------------------------------------|
F-----------------------------------------------------------------|
C-7-7--5-5-5--3-3--3-3-3--3-3-5-5--7-7--5-5-5--3-3--3-3-3--3-3--3-|
G-7-7---------3-3---------3-3-5-5--7-7---------3-3---------3-3--3-|
C-7-7---------3-3---------3-3-5-5--7-7---------3-3---------3-3--3-|

Guitar 2
D----------------------------------------------------------------------|
A----------------------------------------------------------------------|
F----------------------------------------------------------------------|
C-7-7-7-7-7-7-3-3-3-3-3-3-3-3-5-5--7-7-7-7-7-7-3-3-3-3-3-3-3-3-5-5-----|
G-7-7-7-7-7-7-3-3-3-3-3-3-3-3-5-5--7-7-7-7-7-7-3-3-3-3-3-3-3-3-5-5-12\-|
C-7-7-7-7-7-7-3-3-3-3-3-3-3-3-5-5--7-7-7-7-7-7-3-3-3-3-3-3-3-3-5-5-----|
o
Guitar 1
D-----------------------------------------------------------------|
A-----------------------------------------------------------------|
F-----------------------------------------------------------------|
C-7-7--5-5-5--3-3--3-3-3--3-3-5-5--7-7--5-5-5--3-3--3-3-3--3-3--3-|
G-7-7---------3-3---------3-3-5-5--7-7---------3-3---------3-3--3-|
C-7-7---------3-3---------3-3-5-5--7-7---------3-3---------3-3--3-|

Guitar 2
D-------------------------------------------------------------------------|
A-10-10-10-10-11-10-10-10-10-10-10-8-8-8-10-10-10-10-11-10-10-10-10-10-10-|
F-------------------------------------------------------------------------|
C-------------------------------------------------------------------------|
G-------------------------------------------------------------------------|
C-------------------------------------------------------------------------|

Guitar 1 and 2
D--------|
A--------|
F--------|
C-3-3--3-|
G-3-3--3-|
C-3-3--3-|

Tab Legend
h  -  hammer-on
p  -  pull-off
/  -  slide up
\  -  slide down
ps/-  pickslide up
ps\-  pickslide down
~  -  let ring
s  -  silence after played
|  -  separator (just to help you read)
x X-  over period of time increase loudness
X x-  over period of time decrease loudness
Pm -  palm mute

There you go! Thanks for viewing, and make another tab of this that is better! Leave
for how good I did.
Добавлено: 01.07.2012
Другие материалы по этой песне:
  • Аккорды и текст

Страница создана 02.03.2012
http://primanota.ru/under-the-flood/in-vain-chords.htm
Привет, Гость.
Предлагаем пройти революционный курс по гитаре.
Подарок от PrimaNota.Ru, забирай!