PrimaNota.ru - самый крупный в мире бесплатный архив песенных текстов, аккордов, табулатур и нот


Undead Army - I Wont Let You Go - таба, видео

Регистрация Запомнить меня
Войти через:  Facebook Google Twitter Vk Yandex Mail.ru

Undead Army - I Wont Let You Go - таба, видео

Печатать
Просмотров: 28
-------------------------------------------------------------------------------
                        I Won't Let You Go - Undead Army
-------------------------------------------------------------------------------
Tabbed by: Mikael 
E-mail:

Tuning: D A D G B e

e|---------------------------------------------------------------------------|
B|---16----------16---------16----------16-----------------------------------|         
G|------15----------15---------15----------15--------------------------------|
D|---------14----------14---------14----------14-----------------------------|
A|---------------------------------------------------------------------------|
D|---------------------------------------------------------------------------|
                                                                                      intro
e|---------------------------------------------------------------------------|
B|---17----------17----------17---------17-----------------------------------|
G|------16----------16----------16---------16--------------------------------|
D|---------15----------15----------15---------15-----------------------------|
A|---------------------------------------------------------------------------|
D|---------------------------------------------------------------------------|

e|---------------------------------------------------------------------------|
B|---------------------------------------------------------------------------|
G|---------------------------------------------------------------------------|
D|-1----4---3--5--1---1----4---3--5--1---1----4---3--5--1---1----4---3--5--1-|
A|-1----4---1--3--1---1----4---1--3--1---1----4---1--3--1---1----4---1--3--1-|
D|-1----4---------1---1----4---------1---1----4---------1---1----4---------1-|

e|---------------------------------------------------------------------------|
B|---16-------16-------16-------16-------17-------17-------17-------17-------|
G|------15-------15-------15-------15-------16-------16-------16-------16----|
D|---------14-------14-------14-------14-------15-------15-------15-------15-|
A|---------------------------------------------------------------------------|
D|---------------------------------------------------------------------------|

e|---------------------------------------------------------------------------|
B|--16-------16-------16-------16-------16-------16-------16-------16--------|
G|-----15-------15-------15-------15-------15-------15-------15-------15-----|
D|--------14-------14-------14-------14-------14-------14-------14-------14--|
A|---------------------------------------------------------------------------|
D|---------------------------------------------------------------------------|

e|---------------------------------------------------------------------------|
B|--17-------17-------17-------17--------------------------------------------|
G|-----16-------16-------16-------16-----------------------------------------|
D|--------15-------15-------15-------15--------------------------------------|
A|---------------------------------------------------------------------------|
D|---------------------------------------------------------------------------|



************************************

| /   slide up
| \   slide down
| h   hammer-on
| p   pull-off
| ~   vibrato
| +   harmonic
| x   Mute note
| b   Bend
| pb  Pre-bend
| br  Bend release
| pbr Pre-bend release
| brb Bend release bend

************************************
Добавлено: 24.10.2015
Другие материалы по этой песне:
  • Аккорды и текст

Страница создана 24.10.2015
http://primanota.ru/undead-army/i-wont-let-you-go-chords.htm
Привет, Гость.
Предлагаем пройти революционный курс по гитаре.
Подарок от PrimaNota.Ru, забирай!